» » »

Brad Paisley - Spaghetti Western Swing Tabs

Artists:  A B C D E F G H I J K L M N O P Q R S T U V W X Y Z # 

Spaghetti Western Swing Tabs

(ver. 1) Click to play this song!
Brad Paisley
 Rating:
4/5 (4 votes)
                Brad Paisley  -  Spaghetti Western Swing  (intro to tab)



I've tried to line the notes in the intro up with the words spoken as they're played..
Don't take the spacings as intervals between notes!! :o)
I've also tabbed the intro for just one guitar...to make my life easier... lol 

I've done this seperate to the main tab, cos it takes up too much space... :o)


*****************************************************************************************************

bh   =   bend & hold                                                r   =   release bend

h    =   hammer-on                                                  bnb =   behind-nut bend

pbr  =   pre-bend & release                                         b   =   bend

br   =   bend & release                                             /   =   slide up

!    =   natural harmonic                                           x   =   dead note

*****************************************************************************************************


The Grand Ole Opry theatre proudly presents:
Spaghetti Western Swing.


           They rode in from the East (WEST!) They rode in from the West
E---------2---------------------------------------------------------------
B---------2---------------------------------------------------------------
G---------2-----------------------------------2---------------------------
D---------4-----------------------------------2h4-------------------------
A---------4--------------------------------0--5---------------------------
E--4bh-4r-2-----------------------------4---------------------------------


  On Clydesdales   No, you got it all wrong. Oh, what do you know?
E-------------------------------------0---------------------------
B------------------------------------2----------------------------
G----------------------2------------------------------------------
D---------------2--0---2------------------------------------------
A---------------4--2---0------------------------------------------
E-----------------------------------------------------------------


  Who's tellin' this story?  I am!! settle down.. awww.. Maybe a good cowboy has told a story
E--------------------------------------0-----------------------------------------------------
B------------------------------------0------------0bnb---------------------------------------
G----------------------------------1----------------------------------2pbr-------------------
D-------0------------------------4-----------------------------------------------------------
A--0-4bh-4r--------------------2-------------------------------------------------------------
E----------------------------0---------------------------------------------------------------


  about          Mama Luigi's restaurant  Awww, the Italian food.. Or was it a Chinese restaurant?
E-------------------------------------------------------------------------------------------------
B-----2-----------------------------2---5/7----------------------2--SLOW---/---SLIDE--7-----------
G------4b-4br-p2-2-----------------------------------------------2--SLOW---/---SLIDE--7-----------
D----------------4-----------------------------------------------2--SLOW---/---SLIDE--7------5!---
A----------------4--------------------------------------------------------------------------------
E----------------2--------------------------------------------------------------------------------


  They ordered spaghetti. You know there's nothin' like Western spaghetti
E------------------------------------------------------------12/14-12--8/9----
B------------------------------------------------------------12/14-12--9/10---
G--------------------------------------------------------------------------9--
D-----------------------------------------------------------------------------
A-----------------------------------------------------------------------------
E-----------------------------------------------------------------------------


  And pasta primavera but,       They were out of spaghetti
E-------------------------------------------------------------0---
B---4/5-----------------------------------------------------------
G---5/6-6--------5/6-------4---2/4-------------------------0h1----
D-------7--------6/7-------6---4/6-------------------------2------
A--0-------------------------------------------------------2------
E-----------------------------------------------------------------


  Then there was an argument!  And trouble ensued....Ooooh!
E-----------------------------------------------------------3b------|
B------------------------------------3---------------------x--------|
G--------2---------------2---------1----------------------x---------|
D--------4---------------4-------2----------------------------------|
A------------------------4-----2------------------------------------|
E----------------------------0--------------------------------------|

            
Submit corrections

↑ Back to top | Tablatures and chords for acoustic guitar and electric guitar, ukulele, drums are parodies/interpretations of the original songs. You may use it for private study, scholarship, research or language learning purposes only