Home » B » Box Car Racer »

Box Car Racer - Cat Like Thief Tabs

Artists:  A B C D E F G H I J K L M N O P Q R S T U V W X Y Z # 

Cat Like Thief Tabs

(ver. 3) Click to play this song!
Box Car Racer
Standard Tuning


Intro     I feel Down Again, But I can't complain.....
E:|-----------------------------------------------------------------|
B:|-----------------------------------------------------------------|
G:|-----------------------------------------------------------------|
D:|-----7-------7-------7-------7-------7-------7-------7-------7---|
A:|-0-0---0-0-0---4-4-4---4-4-4---5-5-5---5-5-5---5-5-5---5-5-5---5-|
E:|-----------------------------------------------------------------|


Chorus    
E:|-----------------||-----------------||---------------------|
B:|-----------------||-----------------||---------------------|
G:|-6-6-6-6-6-6-6-6-||-7-7-7-7-7-7-7-7-||-9-9-9-9-9-9-9-9-9-9-|
D:|-6-6-6-6-6-6-6-6-||-7-7-7-7-7-7-7-7-||-9-9-9-9-9-9-9-9-9-9-|
A:|-4-4-4-4-4-4-4-4-||-5-5-5-5-5-5-5-5-||-7-7-7-7-7-7-7-7-7-7-|
E:|-----------------||-----------------||---------------------|


Solo Outro    Dont leave, Dont leave her.....
E:|-------12---------12----9----9----9----9----|
B:|-10-10----10-10-10---10---10---10---10---10-|
G:|--------------------------------------------|
D:|--------------------------------------------|
A:|--------------------------------------------|
E:|--------------------------------------------|
            
Submit corrections

↑ Back to top | Tablatures and chords for acoustic guitar and electric guitar, ukulele, drums are parodies/interpretations of the original songs. You may use it for private study, scholarship, research or language learning purposes only