Home » B » Box Car Racer »

Box Car Racer - Cat Like Thief Tabs

Artists:  A B C D E F G H I J K L M N O P Q R S T U V W X Y Z # 

Cat Like Thief Tabs

(ver. 2) Click to play this song!
Box Car Racer


-|----------------------------------------|----------------------------------
-|----------------------------------------|----------------------------------
-|----------------------------------------|----------------------------------
-|----7----7----7----7----7----7---7----7-|----------------------------------
-|-----------44---44---55---55---55--55---|----------------------------------
-|-55---55--------------------------------|----------------------------------
    intro and verse                                                           

-|----------------------------------------|----------------------------------
-|----------------------------------------|----------------------------------
-|----------------------------------------|----------------------------------
-|----7----7----7----7----7----7----7----7|----------------------------------
-|-00---00---55---55---77---77---77---77--|----------------------------------
-|----------------------------------------|----------------------------------
 chorus                                                                       

-|-------12----------12--9-9----9-9-9-----|----------------------------------
-|-10-10----10-10-10---------10-------10--|----------------------------------
-|----------------------------------------|----------------------------------
-|----------------------------------------|----------------------------------
-|----------------------------------------|----------------------------------
-|----------------------------------------|-----------------------------------
 piano outro
            
Submit corrections

↑ Back to top | Tablatures and chords for acoustic guitar and electric guitar, ukulele, drums are parodies/interpretations of the original songs. You may use it for private study, scholarship, research or language learning purposes only