Home » B » Bloc Party »

Bloc Party - Talons Tabs

Artists:  A B C D E F G H I J K L M N O P Q R S T U V W X Y Z # 

Talons Tabs

(ver. 3) Click to play this song!
Bloc Party
I think this is what russell is playing. i cant really hear what kele is playing until 
verse and even then it seems recorded low on the version i heard

Intro

e|-------------------------------------------------|
B|-------------------------------------------------|
G|-------------------------17-17-17-17-14-14-14-14-|
D|-12-12-12-12-12-12-12-12-x--x--x--x--x--x--x--x--|
A|-x--x--x--x--x--x--x--x--15-15-15-15-12-12-12-12-|
E|-10-10-10-10-10-10-10-10-------------------------|

e|-----------------------------------------|
B|-----------------------------------------|
G|-----------------17-17-17-17-14-14-14-14-|
D|-8-8-8-8-8-8-8-8-x--x--x--x--x--x--x--x--|
A|-x-x-x-x-x-x-x-x-15-15-15-15-12-12-12-12-|
E|-6-6-6-6-6-6-6-6-------------------------|

and sometimes this instead
e|-------------------------------------------|
B|-------------------------------------------|
G|-----------------17-17-17-17-14\13/17\14---|
D|-8-8-8-8-8-8-8-8-x--x--x--x--x-\x-/x-\x----|
A|-x-x-x-x-x-x-x-x-15-15-15-15-12\11/15\12---|
E|-6-6-6-6-6-6-6-6---------------------------|

and this at the end of the intro
e|-----------------------------------------|
B|-----------------------------------------|
G|-----------------14-14-14-14-17-17-17-17-|
D|-8-8-8-8-8-8-8-8-x--x--x--x--x--x--x--x--|
A|-x-x-x-x-x-x-x-x-12-12-12-12-15-15-15-15-|
E|-6-6-6-6-6-6-6-6-------------------------|


Chorus

e|---8--------8-----------------------------|
B|-----10-------11-10-11-10-8---------------|
G|-7-----10-9----------------10----12-14-9--| 
D|------------------------------10----------|
A|------------------------------------------|
E|------------------------------------------|

e|---8--------8-------------------------------------|
B|-----10-------11-10-11-10-8-----------------------|
G|-7-----10-9----------------10-------------7-7-9-9-| 
D|------------------------------10-10-11-11---------|
A|--------------------------------------------------|
E|--------------------------------------------------|
            
Submit corrections

↑ Back to top | Tablatures and chords for acoustic guitar and electric guitar, ukulele, drums are parodies/interpretations of the original songs. You may use it for private study, scholarship, research or language learning purposes only