Home » B » Bloc Party »

Bloc Party - Talons Tabs

Artists:  A B C D E F G H I J K L M N O P Q R S T U V W X Y Z # 

Talons Tabs

(ver. 2) Click to play this song!
Bloc Party
Chorus/Intro Riff 1
e|-------------------------------------------------|
B|-------------------------------------------------|
G|-------------------------------------------------|
D|----------10-10-10-77777-88888888-10-10-10-77777-|
A|-55555555----------------------------------------|
E|-------------------------------------------------|

Chorus Riff 2
e|------------------------------------|
B|------------------------------------|
G|------------------------------------|
D|---10-7-----10-8-7-8-7--------------|
A|-5------8-7------------8-7-5-7-8-10-|
E|------------------------------------|

Verse (again palm-muted whole way through; not sure about this either)
(just play each nite as long as u need. there are loads so i havent written them all in
just listen to the song)
e|------------12//////-14/////-17//////---------|
B|----------------------------------------------|
G|-7/////////-----------------------------------|
D|----------------------------------------------|
A|----------------------------------------------|
E|----------------------------------------------|

Solo
e|----8-------------8---------------|
B|------10---8-10-----10-11-10-7----|
G|-10------9------9--------------10-|
D|----------------------------------|
A|----------------------------------|
E|----------------------------------|
then...
e|----8---------------------10-13--|
B|------10---8-10---8-11-13--------|
G|-10------9------9----------------|
D|---------------------------------|
A|---------------------------------|
E|---------------------------------|

Im putting this up as an alternative to the others cos i think theres are patchy in sum 
where i reckon ive got it right but theyve got sum bits right which i couldnt quite get. 
together we have a 100% correct tab! :P
            
Submit corrections

↑ Back to top | Tablatures and chords for acoustic guitar and electric guitar, ukulele, drums are parodies/interpretations of the original songs. You may use it for private study, scholarship, research or language learning purposes only