» » »

Bloc Party - Sunday Tabs

Artists:  A B C D E F G H I J K L M N O P Q R S T U V W X Y Z # 

Sunday Tabs

(ver. 3) Click to play this song!
Bloc Party
 Rating:
4/5 (4 votes)

 Sunday lessons Tabs too difficult? Try these video lessons and learn fast
 
                ----------------------------------------------------------------------------
                        Sunday - Bloc Party
----------------------------------------------------------------------------

i saw that the solo part that is tabbed isn't very accurate so i'm tabbing the way i play the solo.

Tuning: standard

e|-------------------------------------------------------------------------|
B|--12-12-12-12-13-13-13-13-15--------15-------15-13-13-15-12-12----12-----|
G|------------------------------12-12----12-14-------------------14----12--|
D|-------------------------------------------------------------------------|
A|-------------------------------------------------------------------------|
E|-------------------------------------------------------------------------|

e|----------------------12-14-15-------15-------19-------20-------22-------|
B|-------12-13-13-13-15----------12-13----13-15----15-17----17-19----19-20-|
G|-12-14-------------------------------------------------------------------|
D|-------------------------------------------------------------------------|
A|-------------------------------------------------------------------------|
E|-------------------------------------------------------------------------|

e|--20-19------------------------------------------------------------------|
B|--------20-15-13-12------------15-------15--------15-13-13-15-12-12----12|
G|--------------------12-12-14------12-12----12-14--------------------14---|
D|-------------------------------------------------------------------------|
A|-------------------------------------------------------------------------|
E|-------------------------------------------------------------------------|
                                    tr  tr  tr  tr  tr
e|---------------------------12-14--15--17--19--20--22---------------------|
B|-----------12-13-13-13-15------------------------------------------------|
G|--12-12-14---------------------------------------------------------------|
D|-------------------------------------------------------------------------|
A|-------------------------------------------------------------------------|
E|-------------------------------------------------------------------------|


And that's all! pretty easy huh? Enjoy it.
            
Submit corrections


        Sunday lessons Hard to play? Try these video lessons and learn fast Sunday lessons
        
↑ Back to top | Tablatures and chords for acoustic guitar and electric guitar, ukulele, drums are parodies/interpretations of the original songs. You may use it for private study, scholarship, research or language learning purposes only