» » »

Bloc Party - Sunday Tabs

Artists:  A B C D E F G H I J K L M N O P Q R S T U V W X Y Z # 

Sunday Tabs

(ver. 1) Click to play this song!
Bloc Party
 Rating:
4/5 (4 votes)

 Sunday lessons Tabs too difficult? Try these video lessons and learn fast
 
                Sunday-Bloc Party

I pieced this together from videos of them live in Bristol Academy.

Verse

Repeat This Change as many times as neccesary.

'Heavy Night......'

e------------------|
B-12~~~~~--5~~~~~--|
G-11~~~~~--5~~~~~--|
D-12~~~~~--5~~~~~--|
A-10~~~~~--3~~~~~--|
E------------------|

Verse Part 2

These Changes are quick

e-----------------------------------| As Many Times As
B-8~~~~~--12~~~~~--5~~~~~--12~~~~~--| Neccesary.
G-7~~~~~--11~~~~~--5~~~~~--11~~~~~--|
D-9~~~~~--12~~~~~--5~~~~~--12~~~~~--|
A-7~~~~~--10~~~~~--3~~~~~--10~~~~~--|
E-----------------------------------|

This is the last chords before the chorus

e----------------------------------|
B-12~~~~~--8~~~~~--5~~~~~--5~~~~~--|
G-11~~~~~--7~~~~~--5~~~~~--5~~~~~--|
D-12~~~~~--9~~~~~--5~~~~~--5~~~~~--|
A-10~~~~~--7~~~~~--3~~~~~--3~~~~~--|
E----------------------------------|

Chorus

Gtr 1 (Kele)

e--------------------------------------------------| 
B-5-5-5-5-5--7-7-7-7-7--8-8-8-8-8--12-12-12-12-12--|
G-5-5-5-5-5--7-7-7-7-7--7-7-7-7-7--12-12-12-12-12--|
D-5-5-5-5-5--7-7-7-7-7--9-9-9-9-9--12-12-12-12-12--|
A-3-3-3-3-3--5-5-5-5-5--7-7-7-7-7--10-10-10-10-10--|
E--------------------------------------------------| x4

Gtr 2 (Russell)

e-----3----5-3-0------------------------|
B---3--3-8--------13-12-8-5/13-12-8-10--|
G-0-------------------------------------|
D---------------------------------------|
A---------------------------------------|
E---------------------------------------|

e-----3-------7-----------------------------|
B---3---3--10---10-8-13-12-8-5/15-13--------|
G-0----------------------------------16-14--|
D-------------------------------------------|
A-------------------------------------------|
E-------------------------------------------| repeat these riffs twice.

2nd Verse

Russell Plays the same thing.

Gtr 1 (Kele)

e-----7----|
B---8---8--| Repeat Through the verse.
G-7--------|
D----------|
A----------|
E----------|

Bridge

e------------------------|
B--------------8-----12--|
G---5----7--9-----12-----|
D-5----7-----------------|
A------------------------|
E------------------------|

Im going to leave the solo because the solo tab is pretty good.
            
Submit corrections


        Sunday lessons Hard to play? Try these video lessons and learn fast Sunday lessons
        
↑ Back to top | Tablatures and chords for acoustic guitar and electric guitar, ukulele, drums are parodies/interpretations of the original songs. You may use it for private study, scholarship, research or language learning purposes only