» » »

Bloc Party - Positive Tension Bass

Artists:  A B C D E F G H I J K L M N O P Q R S T U V W X Y Z # 

Positive Tension Bass

(ver. 2) Click to play this song!
Bloc Party
 Rating:
4/5 (4 votes)

 Positive Tension lessons Tabs too difficult? Try these video lessons and learn fast
 
                -------------------------------------------------------------------------------
			     Positive Tension - Bloc Party
-------------------------------------------------------------------------------



This is how i saw him play it live. 

Tuning: EADG

Main Bass Riff

G|--------------------------------------------------|
D|--------------------------------------------------|
A|--------------------------------------------------|
E|-8-8-3-6-8-6-8---8-6-8-6--------------------------|

Listen to song for rhythm


Run Run Run - 1:22
G|---------------------------------------------------|
D|---------------------------------------------------|
A|---------------------------------------------------|  X 4
E|-4~-1~-8-8-3-6-8-6-8--8-6-8-6----------------------|


Main Riff
1:46
G|--------------------------------------------------|
D|--------------------------------------------------|
A|--------------------------------------------------|
E|-8-8-3-6-8-6-8---8-6-8-6--------------------------|

Run Run Run - 2:10
G|---------------------------------------------------|
D|---------------------------------------------------|
A|---------------------------------------------------|  X 4
E|-4~-1~-8-8-3-6-8-6-8--8-6-8-6----------------------|

Rest due guitar part until 2:58 
Then
G|----------------------------------------------------|
D|----------------------------------------------------|
A|----------------------5-5-5-------------------------|
E|--8-8--3-3--4-4--1-1--------------------------------|

So f**king useless
Solo - 3:22
G|-----------------------------------------------------|
D|-----------------------------------------------------|
A|----------------------------555555555555-3-3---------|
E|-33333333-44444444-11111111--------------------------|

G|------------------------------------------------------|
D|------------------------------------------------------|
A|----------------------------555555555---------55555555|
E|-33333333-44444444-11111111----------11111111---------|

Ends on
Main Riff
G|--------------------------------------------------|
D|--------------------------------------------------|
A|--------------------------------------------------|   X 4
E|-8-8-3-6-8-6-8---8-6-8-6--------------------------|


| /  slide up
| \  slide down
| h  hammer-on
| p  pull-off
| ~  vibrato
| +  harmonic
| x  Mute note
===============================================================================
            
Submit corrections


        Positive Tension lessons Hard to play? Try these video lessons and learn fast Positive Tension lessons
        
↑ Back to top | Tablatures and chords for acoustic guitar and electric guitar, ukulele, drums are parodies/interpretations of the original songs. You may use it for private study, scholarship, research or language learning purposes only