» » »

Bloc Party - Positive Tension Tabs

Artists:  A B C D E F G H I J K L M N O P Q R S T U V W X Y Z # 

Positive Tension Tabs

(ver. 2) Click to play this song!
Bloc Party
 Rating:
4/5 (4 votes)

 Positive Tension lessons Tabs too difficult? Try these video lessons and learn fast
 
                -------------------------------------------------------------------------------
-------------------------------------------------------------------------------

I finally figured out the entire Positive Tension guitar part. Here it is:


Tuning:EADGBE

the bit played around 0:58
e|------------6~--------|
B|---4~--4-3------------|
G|----------------------|
D|----------------------|
A|----------------------|
E|----------------------|

These are the power chords played during the "run-run-run" part:

e|------------|------------|
B|------------|------------|
G|------------|------------|
D|-----6------|-----3------|
A|-----6------|-----3------|
E|-----4------|-----1------|


Then these are the chords played around 2:34

e|--------------------------------------------------------------------------|
B|--------------------------------------------------------------------------|
G|---5-5-5------------------------------7-7-7-7-----------------------------|
D|---5-5-5--5-5-5-----6-6-6---3-3-3-----7-7-7-7-----------------------------|
A|---3-3-3--5-5-5-----6-6-6---3-3-3-----5-5-5-5-----------------------------|
E|----------3-3-3-----4-4-4---1-1-1-----------------------------------------|

e|--------------------------------------------------------------------------|
B|--------------------------------------------------------------------------|
G|---5-5-5------------------------------6-6-6-6-----------------------------|
D|---5-5-5--5-5-5-----6-6-6---3-3-3-----6-6-6-6-----------------------------|
A|---3-3-3--5-5-5-----6-6-6---3-3-3-----4-4-4-4-----------------------------|
E|----------3-3-3-----4-4-4---1-1-1-----------------------------------------|

Keep playing those chords until the solo

Guitar 2 plays a different riff that I haven't gotten yet, but I'll update soon

Solo:

e|--------------------------------------------------|
B|--------------------------------------------------|
G|--12----12-15-13-12------12----12--15-13-12-------|
D|-----13---------------13-----13-------------------|
A|--------------------------------------------------|
E|--------------------------------------------------|


e|-11----------13-----------------------------------|
B|-----14(16)------16(18)---15-16-------------------|
G|---------------------------------15-15-13-15-12---|
D|--------------------------------------------------|
A|--------------------------------------------------|
E|--------------------------------------------------|


e|--------------------------------------------------|
B|-----------------------13-------------------------|
G|-12--10--8--10-----15------13--15--12--13------12-|
D|-------------------------------------------15-----|
A|--------------------------------------------------|
E|--------------------------------------------------|


e|----------------------------------------------------|
B|----------------------------------------------------|
G|----------------------------------10----------------|
D|-13-12--10^^^^^-10-10-12-10-13-10----10--10-10-12---|
A|----------------------------------------------------|
E|----------------------------------------------------|


e|--------------------------------------------------|
B|-----------------15^^^^^^^^^^---------------------|
G|----------10-----16^^^^^^^^^^---------------------|
D|-10-13-10----10-----------------------------------|
A|--------------------------------------------------|
E|--------------------------------------------------|

Thanks to Henrik for some corrections!

| /  slide up
| \  slide down
| h  hammer-on
| p  pull-off
| ~  vibrato
| +  harmonic
| x  Mute note
===============================================================================
            
Submit corrections


        Positive Tension lessons Hard to play? Try these video lessons and learn fast Positive Tension lessons
        
↑ Back to top | Tablatures and chords for acoustic guitar and electric guitar, ukulele, drums are parodies/interpretations of the original songs. You may use it for private study, scholarship, research or language learning purposes only