Home » B » Black Sabbath »

Black Sabbath - Electric Funeral Tabs

Artists:  A B C D E F G H I J K L M N O P Q R S T U V W X Y Z # 

Electric Funeral Tabs

(ver. 2) Click to play this song!
Black Sabbath
Electric Funeral   
                                 By Black Sabbath
                                 off of their
                                  "Paranoid"
                                    album
                      
   w/wah-wah       4 times (end riff 1)   
 |------------------------|
 |------------------------|
 |*----------------------*|
 |*----------------------*|
 |--------2br2~~~~~-------|
 |--0--0---------0--2br2--|
                     (end riff 2)
 |------------------------|
 |------------------------|
 |------------------------|
 |------------------------|
 |----X--2--1-------------|
 |--0-X--------5---3------|
                  7 times (end riff 2A)    (fill 1)
 |--------------------------|        |---------|
 |--------------------------|        |---------|
 |*------------------------*|        |----4----|
 |*------------------------*|        |----2----|
 |----------2--1------------|        |----2----|
 |--0-0-0-0-------5---3-----|        |----0----|

  *riff 1* \
  *riff 2*  >2 Times
  *riff 2A*/ 
  *riff 1*  
  *fill 1* 
  *riff 3*
            5 times (end riff 3)
 |------------------|
 |------------------|
 |*--9----8----7---*|
 |*--9----8----7---*|	
 |---7----6----5----|
 |---0--------------|

                                     (end riff 4)
 |------------X---12--12--12-12--X-X--|
 |------------X---12--12--12-12--X-X--|
 |--9--7--9---X---12--12--12-12--X-X--|
 |--9--7--9---X------------------X-X--|
 |--7--5--7---------------------------|
 |------------------------------------|

                                        (end riff 5) 
 |---------------------|-------------------------|
 |-5--8--8/10--8-10b---|-5--8--8/10--10b-10--8-5-|
 |---------------------|-------------------------|
 |---------------------|-------------------------|
 |---------------------|-------------------------|
 |---------------------|-------------------------|

  *riff 4*
  *riff 5*
  *riff 4*
  *riff 5*
  *solo*
  *riff 1* \
  *riff 2*  >2 times
  *riff 2A*/

  Solo:
                 4 times             2 times
 |---12---12---12---12---|-------------------|------------------|
 |---15b--15b--15b--15b--|--7--7-7--X-7b--\--|--7--7-7--X-7b-7b-|
 |*---------------------*|*-----------------*|------------------|
 |*---------------------*|*-----------------*|------------------|
 |-----------------------|-------------------|------------------|
 |-----------------------|-------------------|------------------|


   b:bend
  br:bend and release
 ~~~:vibrato
   X:rake
   \:glissendo
            
Submit corrections

↑ Back to top | Tablatures and chords for acoustic guitar and electric guitar, ukulele, drums are parodies/interpretations of the original songs. You may use it for private study, scholarship, research or language learning purposes only