» » »

Black Sabbath - Electric Funeral Tabs

Artists:  A B C D E F G H I J K L M N O P Q R S T U V W X Y Z # 

Electric Funeral Tabs

(ver. 9) Click to play this song!
Black Sabbath
 Rating:
4.4/5 (11 votes)

 Electric Funeral lessons Tabs too difficult? Try these video lessons and learn fast
 
                [Intro] - 4x
e|------------------------------------|
B|------------------------------------|
G|------------------------------------|
D|------------------------------------|
A|----------2h3--2~~~-----------------|
E|----0--0-------------0--2h3--2~~~---|

[Verse 1] – 4x
e|------------------------|-----------------------------|
B|------------------------|-----------------------------|
G|------------------------|-----------------------------|
D|------------------------|-----------------------------|
A|------2~~~--1~~~--0-----|----------2~~~--1~~~--0------|
E|-0-0-----------------3--|-0-0-0-0-----------------3---|

[Repeat Intro] - 4x
e|------------------------------------|
B|------------------------------------|
G|------------------------------------|
D|------------------------------------|
A|----------2h3--2~~~-----------------|
E|----0--0-------------0--2h3--2~~~---|

[Verse 2] – 4x
e|------------------------|-----------------------------|
B|------------------------|-----------------------------|
G|------------------------|-----------------------------|
D|------------------------|-----------------------------|
A|------2~~~--1~~~--0-----|----------2~~~--1~~~--0------|
E|-0-0-----------------3--|-0-0-0-0-----------------3---|

[Repeat Intro] - 4x
e|------------------------------------|
B|------------------------------------|
G|------------------------------------|
D|------------------------------------|
A|----------2h3--2~~~-----------------|
E|----0--0-------------0--2h3--2~~~--0|

[Pre bridge] – 5x
e|--------------|
B|--------------|
G|--------------| 
D|--------------|
A|---14-13-12---|
E|---12-11-10---|

[Bridge] - 2x
e|------------12--12--12--12--12--|------------12--12--12----|
B|------------12--12--12--12--12--|------------12--12--12----|
G|------------12--12--12--12--12--|------------12--12--12----|
D|--------------------------------|--------------------------| 2X
A|--14-12-14----------------------|--14-12-14----------------|
E|--12-12-12----------------------|--12-12-12----------------|

e|------------------|----------------------|
B|------------------|----------------------|
G|----12-14-12-14^--|-----12-14-14^-12-----| 2X
D|-14---------------|--14--------------14--|
A|------------------|----------------------|
E|------------------|----------------------|

[Chorus]
e|-12--12--12--12---|
B|-15^-15^-15^-15^--|
G|------------------|
D|------------------| 4X  
A|------------------|
E|------------------|

e|------------------|
B|-3--3--3---5------|
G|-5^-5^-5^--7^-----|
D|------------------| 3X
A|------------------|
E|------------------|

[Repeat Intro] - 4x
e|------------------------------------|
B|------------------------------------|
G|------------------------------------|
D|------------------------------------|
A|----------2h3--2~~~-----------------|
E|----0--0-------------0--2h3--2~~~---|

[Verse 3] – 4x
e|------------------------|------------------------------|
B|------------------------|------------------------------|
G|------------------------|------------------------------|
D|------------------------|------------------------------|
A|------2~~~--1~~~--0-----|-----------2~~~--1~~~--0------|
E|-0-0-----------------3--|--0-0-0-0-----------------3---|

[Repeat Intro] - 4x
e|------------------------------------|
B|------------------------------------|
G|------------------------------------|
D|------------------------------------|
A|----------2h3--2~~~-----------------|
E|----0--0-------------0--2h3--2~~~---|

[Outro] - 4x  (Fade out)
e|------------------------|------------------------------|
B|------------------------|------------------------------|
G|------------------------|------------------------------|
D|------------------------|------------------------------|
A|------2~~~--1~~~--0-----|-----------2~~~--1~~~--0------|
E|-0-0-----------------3--|--0-0-0-0-----------------3---|
            
Submit corrections


        Electric Funeral lessons Hard to play? Try these video lessons and learn fast Electric Funeral lessons
        
↑ Back to top | Tablatures and chords for acoustic guitar and electric guitar, ukulele, drums are parodies/interpretations of the original songs. You may use it for private study, scholarship, research or language learning purposes only