Home » B » Black Sabbath »

Black Sabbath - Snowblind Tabs

Artists:  A B C D E F G H I J K L M N O P Q R S T U V W X Y Z # 

Snowblind Tabs

(ver. 1) Click to play this song!
Black Sabbath
Here's my version of snowblind......
--------------|----------------------|--------0------|------------------------
--------------|----------------------|-------1--1----|------------------------
--------------|----------------------|-----0------0--|------------------------
-9----11----12|-7---------9----------|---2----------0|------------------------
-7----9-----10|-5---------7---------0|-3-------------|------------------------
--------------|----------------------|---------------|------------------------
                                                                              

-------2-2------|------------------|-------------------------|----------------
-----3-----3----|------------------|-------------------------|----------------
---2---------2--|------------------|-------------------------|----------------
-0-------------0|-9------9--------9|-----7---7---------------|----------------
----------------|-7------7----0---7|-0---5---5-----5/7-----10|----------------
----------------|------------------|-------------------------|----------------
                                                                              

--------------------------------|------------------------0--|-----------------
--------------------------------|----------1---------3------|-----------------
--------------------------------|--------0--------2---------|-----------------
--------------------------------|----2---------0------------|-----------------
-7----------------0------------0|-3-------------------------|-----------------
------10-----9---------3b5------|---------------------------|-----------------
                                                                              

-------------0------|------------------|---------0------|---------0-----|-----
----------0----0----|-------0---------0|-------0---0----|-------0---0---|-----
-------0---------0--|-----0---------0--|-----0-------0--|-----0-------0-|-----
----9--------------9|---7---------5----|---5-----------5|---4-----------|-----
-7------------------|-5---------4------|-3--------------|-2-------------|-----
--------------------|------------------|----------------|---------------|-----
                                                                              

-------------|------------------------------|-12-------------------|------|---
-12--------15|-15b17---15b17---15b17---15b17|----15-12-------------|------|---
-------------|------------------------------|----------15---14---12|------|---
-------------|------------------------------|----------------------|-/7--5|---
-------------|------------------------------|----------------------|------|---
-------------|------------------------------|----------------------|------|---
                                                                              

----------------------|---------------|-----------------|--------------|------
----------------------|---------------|-----------------|--------------|------
----------------------|---------------|--------------5--|--------------|------
-------5--7--9b9--7b9-|-7b9r7--5--7---|------5---------7|---------5---7|------
-5h7------------------|--------------7|-5h7-----7-------|---5h7--------|------
----------------------|---------------|-----------------|--------------|------
                                                                              

----------------------|-----------------|---------------------------|---------
----------------------|-----------------|---------------------------|---------
----------------------|-----------------|---------------------------|---------
--7b9------7b9r7-----5|-7b9r7---5h7-----|------5----------------5---|---------
----------------------|----------------7|-5h7-----7----------------7|---------
----------------------|-----------------|---------------------------|---------
                                                                              

-----------------|----------------|--------------------------------|----------
-----------------|----------------|-15b17----15b17---15b17----15b17|----------
-----------------|----------------|--------------------------------|----------
---------5------7|-7b9--9r7------5|--------------------------------|----------
-5h7-------------|----------------|--------------------------------|----------
-----------------|----------------|--------------------------------|----------
                                                                              

-12------------------|-15b17r15----12--------|12-----------------------|------
----15--12-----------|------------------15b17|---15--12----------------|------
-----------15--14--12|-----------------------|----------15--14--12-----|------
---------------------|-----------------------|---------------------/14-|------
---------------------|-----------------------|-------------------------|------
---------------------|-----------------------|-------------------------|------
                                                                              

---------------------------|-------------------------------|------------------
---------------------------|-------------------------------|------------------
---------------------------|-------------------------------|------------------
---------------------------|---------------7---7---------7-|------------------
-7--7h10p7h10--7--7h10p7h10|-7--7h10p7h10--5---5---------5-|------------------
---------------------------|-------------------------------|------------------
            
Submit corrections

↑ Back to top | Tablatures and chords for acoustic guitar and electric guitar, ukulele, drums are parodies/interpretations of the original songs. You may use it for private study, scholarship, research or language learning purposes only