Home » B » Black Sabbath »

Black Sabbath - Electric Funeral Bass

Artists:  A B C D E F G H I J K L M N O P Q R S T U V W X Y Z # 

Electric Funeral Bass

(ver. 1) Click to play this song!
Black Sabbath
-=-=-=-=-=-=-=-=-=-=-=-=-=-=-=-=-=-=-=-=-=-=-=-=-=-=-=-=-=-=-=-=-=-=-=-=-=-=-
                            Band: Black Sabbath
-=-=-=-=-=-=-=-=-=-=-=-=-=-=-=-=-=-=-=-=-=-=-=-=-=-=-=-=-=-=-=-=-=-=-=-=-=-=-
Legend:                           Tuning: Standard
| h  hammer-on
| p  pull-off
| ~  vibrato
| +  harmonic
| x  Mute note
-=-=-=-=-=-=-=-=-=-=-=-=-=-=-=-=-=-=-=-=-=-=-=-=-=-=-=-=-=-=-=-=-=-=-=-=-=-=-

Intro/Chorus:

G|----------------------9---7-----------------------------------------------|
D|-------------------------------9------------------------------------------|
A|--------------------------------------------------------------------------|
E|--------0-------0-----------------------0-------2-----3-----2-------------|
Note: Bass plays a different riff from guitar. Listen Closely

Verse:

G|--------------------------------------------------------------------------|
D|--------------------------------------------------------------------------|
A|--------------------------------------------------------------------------|
E|-------0-------7-------6-------5--3----0-0-0-0--7-------6------5--3-------|


Main Riff After Chorus(Come in at: 2:21):

G|---------------------------------------|--------------------------------|
D|--------------------------5--5--5------|------------------5--5--5-------|x2
A|------7--5--7--------------------------|-----7--5--7--------------------|
E|---------------------------------------|--------------------------------|

G|--------------------------------7----9-|--------------------------------|
D|------------------5---7---9------------|----------6---7---8---7---5-----|x2
A|-------7-------------------------------|---7----------------------------|
E|---------------------------------------|--------------------------------|

G|---------------------------------------|--------------------------------|
D|--------------------------5--5--5------|------------------5--5--5-------|x2
A|------7--5--7--------------------------|-----7--5--7--------------------|
E|---------------------------------------|--------------------------------|

G|--------------------------------7----9-|--------------------------------|
D|------------------5---7---9------------|----------6---7---8---7---5-----|x2
A|-------7-------------------------------|---7----------------------------|
E|---------------------------------------|--------------------------------|


Come in at: 2:50 (..Electric Funeral, Electric Funeral..)
G|---------------------------------------|--------------------------------|
D|---------------------------------------|--------------------------------|
A|----7----6----5------------------------|---7----6----5------------------|
E|--------------------7----6----5--------|------------------7----6----5---|

G|---------------------------------------|--------------------------------|
D|-----------------------------5---------|-----------------------5--------|
A|---------5----5----5-----7-------7-----|----5----5----5----7-------7----|
E|---------------------------------------|--------------------------------|
-=-=-=-=-=-=-=-=-=-=-=-=-=-=-=-=-=-=-=-=-=-=-=-=-=-=-=-=-=-=-=-=-=-=-=-=-=-=-
After these parts. It mainly starts the song over (Chorus, Verse) the easier
stuff. The timing isn't bad for this song at all. you'll know where everything
fits. Enjoy
-Jake
            
Submit corrections

↑ Back to top | Tablatures and chords for acoustic guitar and electric guitar, ukulele, drums are parodies/interpretations of the original songs. You may use it for private study, scholarship, research or language learning purposes only