» » »

Black Label Society - Concrete Jungle Tabs

Artists:  A B C D E F G H I J K L M N O P Q R S T U V W X Y Z # 

Concrete Jungle Tabs

(ver. 3) Click to play this song!
Black Label Society
 Rating:
4.7/5 (12 votes)

 Concrete Jungle lessons Tabs too difficult? Try these video lessons and learn fast
 
                

Tuning:DGCFAD

1]--------------------------------------------------------------------------|
2]--------------------------------------------------------------------------|
3]--------------------------------------------------------------------------|
4]----4-----2----------------------4---2------------------------------------|
5]----------------3---2-2p0---0------------3---2-2p0---0--------------------|
6]-2-----2-----2----2-------2----0---0---0---0-------2----------------------|
                                                             repeat 4x?
1]--------------------------------------------------------------------------|
2]------------do this the last time-----------------------------------------|
3]--------------------------------------------------------------------------|
4]----4----2-----------------------4-----2-----4----------------------------|
5]---------------3---2-2p0---0-----------------2----------------------------|
6]-2----2-----2----2-------2----0-----0-----0-------------------------------|
          this is when the band comes in
1]----------------------------------------------------------|
2]----------------------------------------------------------|
3]----------------------------------------------------------|
4]----4-----2------------------4-----2---------2---4-5-4-2--|
5]---------------3---2---0----------------3----0-0-2-3-2-0--|
6]-2-----2-----2---2---2----0-----0-----0---3b--------------|
    verse riff                               p.m.-----------|
1]----------------------------------------------------------|
2]----------------------------------------------------------|
3]----------------------------------------------------------|
4]----------------------------------------------------------|
5]---4---4----/7-10-9-7-----4---4----/7---------------------|
6]-0-2-0-2-------8--7-5---0-2-0-2-------8-7-5*--------------|
p.m.------       ------   ----------------------------------|           P.H.

1]---------------------------------------------------------------------------|
2]---------------------------------------------------------------------------|
3]---------------------------------------------------------------------------|
4]---4-4---4---4---4---5-5---------------------------------------------------|
5]-0-2-2-0-2-0-2-0-2-0-3-3---------------------------------------------------|
6]---------------------------------------------------------------------------|
   -------   -   -   --------------------------------------------------------|

for the chorus repeat the band riff
            
Submit corrections


        Concrete Jungle lessons Hard to play? Try these video lessons and learn fast Concrete Jungle lessons
        
↑ Back to top | Tablatures and chords for acoustic guitar and electric guitar, ukulele, drums are parodies/interpretations of the original songs. You may use it for private study, scholarship, research or language learning purposes only