» » »

Black Label Society - Concrete Jungle Tabs

Artists:  A B C D E F G H I J K L M N O P Q R S T U V W X Y Z # 

Concrete Jungle Tabs

(ver. 2) Click to play this song!
Black Label Society
 Rating:
3.8/5 (5 votes)

 Concrete Jungle lessons Tabs too difficult? Try these video lessons and learn fast
 
                Black label society - Concrete jungle



Guitar I    D A D G B E
Guitar II   D A D G B E


INTRO

Guitar II : repeat about 4X


||---------------------|-----------------|---------------------|-----------------||
||---------------------|-----------------|---------------------|----------------o||
||---------------------|-----------------|---------------------|-----------------||
||------2------0-------|-----------------|------2------0-------|-----------------||
||------------------1--|------0----------|------------------1--|------0---------o||
||--2-------2-----2----|--2-----7s5-2-5--|--0-------0-----0----|--0-----7s5-2-5--||
|
|Guitar I :
|  1/2
|----------------------|----------------|----------|-------|----------|-------|
|----------------------|----------------|----------|-------|----------|-------|
|--2bu-----------------|------------bd--|-------0--|--(0)--|--(0)-----|-------|
|----------------------|----------------|----------|-------|-------2--|--(2)--|
|----------------------|----------------|----------|-------|----------|-------|
|----------------------|----------------|----------|-------|----------|-------|


   1/2                         1                                  1/2
|---------|---------|----------------|---------|-------|-------|-------|--------|
|---------|---------|----------15bu--|-----bd--|--15---|--(15)-|-------|--------|
|---------|---------|----------------|---------|-------|-------|--14bu-|-14-12--|
|---------|---------|----------------|---------|-------|-------|-------|--------|
|---------|---------|----------------|---------|-------|-------|-------|--------|
|--7bu----|-----bd--|--(7)--/\-------|---------|-------|-------|-------|--------|

            Guit.2
            Guit.1
|----------|------|
|----------|------|
|----------|------|
|--12s14---|--7---|
|----------|--7---|
|----------|--7---|

CHORUS

|---------------|-----------|----------------|-----------------|
|---------------|-----------|----------------|-----------------|
|---------------|-----------|----------------|-----------------|
|----2----0-----|-----------|-----2-----0----|--5--7--8--7--5--|
|---------------|-1---0-----|----------------|--5--7--8--7--5--|
|--2----2----2--|---2---2-5-|--0-----0----0--|--5--7--8--7--5--|

VERSE

|--------------------|--------------|--------------------|---------------|
|--------------------|--------------|--------------------|---------------|
|--------------------|--------------|--------------------|---------------|
|--0--2--0--2--0--2--|--------------|--0--2--0--2--0--2--|---------------|
|--0--2--0--2--0--2--|---s5---------|--0--2--0--2--0--2--|---s5----------|
|--0--2--0--2--0--2--|-------8-7-5--|--0--2--0--2--0--2--|-------8-7-5*--|

BRIDGE

|-------------------|--------------|
|-------------------|--------------|
|-------------------|--------------|
|--5--7-7-5-7--5-7--|----7--5--8-8-|
|--5--7-7-5-7--5-7--|----7--5--8-8-|
|--5--7-7-5-7--5-7--|----7--5--8-8-|
|
|
|
|-------------------|---------------|
|-------------------|---------------|
|-------------------|---------------|
|-------------------|---------------|
|-------------------|-----------7h8-|
|-------------------|----------8----|

SOLO

   1                                                  1             1             
|---------12--|--14-----------------------|--12------------12------------12------------12--------|
|--15bu-------|------14-----16------------|-----15p12-15bu----15p12---------15p12-15bu----15p12--|
|-------------|----------12-----14----13--|-------------------------14bu-------------------------|
|-------------|---------------------1313--|------------------------------------------------------|
|-------------|---------------------------|------------------------------------------------------|
|-------------|---------------------------|------------------------------------------------------|


   1              1
|-------12-------------------|-----------------------------------------------|
|----------15p12-------------|----------------------------------------12-15--|
|--14bu-----------14bubd-12--|-------------------9-12------------9-12--------|
|----------------------------|--------------9-12------------9-12-------------|
|----------------------------|--------10-12-----------10-12------------------|
|----------------------------|--12-14----------------------------------------|


                       1 1/4
|-------------------|--17bu---|
|--13h12tr-12h15tr--|---------|
|-------------------|---------|
|-------------------|---------|
|-------------------|---------|
|-------------------|---------|


ENDING

|------|
|------|
|--7*--|
|------|
|------|
|------|

Thats  all you need to play it correctly.

Legend:

Bu - bend
bd - bend release
tr - trill
* - harmonic
s - slide
/\ - slide "from nowhere"
            
Submit corrections


        Concrete Jungle lessons Hard to play? Try these video lessons and learn fast Concrete Jungle lessons
        
↑ Back to top | Tablatures and chords for acoustic guitar and electric guitar, ukulele, drums are parodies/interpretations of the original songs. You may use it for private study, scholarship, research or language learning purposes only