» » »

Black Label Society - Rust Tabs

Artists:  A B C D E F G H I J K L M N O P Q R S T U V W X Y Z # 

Rust Tabs

(ver. 1) Click to play this song!
Black Label Society
 Rating:
4/5 (4 votes)

 Rust lessons Tabs too difficult? Try these video lessons and learn fast
 
                standard tuning

-----------------------------------|------------------------------------------
-----------------0-----------------|---------------0--------------------------
----------0--------0---0-----0-----|---------0-------0-------0-----0----------
-----4------4--------4---4-----4---|-----4-----4-------4---0-----4------------
---2---2------2------------2-----2-|---2---4-----2-------------5--------------
-0---------------------------------|-0-------------------2-----------0--------
intro

						1...............  2...........
--------0------|--------0------|---------------|-----------------|------------
----------0----|----------0---0|--------3------|---------3-------|-3----------
----4-------4--|----4-------4--|----4-----4---4|-------0---0-----|-0----------
------2-------2|------2--------|------0-----0--|---0-4-------4---|-4----------
---------------|-3-------------|-2-------------|-5-------------5-|-5----------
-0-------------|---------------|---------------|-----------------|------------
chorus
						3..............  4............
--------0------|--------0------|---------------|----------------|-------------
----------0----|----------0---0|--------3------|---------3------|-3-----------
----4-------4--|----4-------4--|----4-----4---4|-------0---0----|-0-----------
------2-------2|------2--------|------0-----0--|---0-4-------4--|-4-----------
---------------|-3-------------|-2-------------|-5-------------5|-2-----------
-0-------------|---------------|---------------|----------------|-0-----------



-------------------|---------------------------------|------------------------
-------------------|---------------0-----------------|------------------------
-------------------|---------0-------0---0-----0-----|----0-----0-------------
-2-4-2-0-----------|-----4-----4-------4---4-----4---|--0-----4---------------
---------0h1p0---0-|---2---2-----2-----------2-----2-|------5-----------------
---------------3---|-0-------------------------------|2-----------0-----------


-|----------------------------------|-------------------------0---------------
-|----------0-------0---------------|---------3-----------------3-------------
-|o-----0-----0-------0-------0-----|-------3---3-----------2-----4-----------
-|o---2---2-----2-------2---2---2---|-----3-------3-------2-------------------
-|--3-------------3-------3-------3-|-1-------------1-0-----------------------
-|----------------------------------|-----------------------------------------
    solo backing

------------------------------------|---------0---------------0---------|-----
------------0---------------0-------|-----------3---------------3-------|-----
--------0-----0---------0-----0-----|-----3-------3-------2-------4----o|-----
------2---2-----2-----2---2-----2---|---3---3-------3---2---2-------5--o|-----
----3-------------3-3-------------3-|-1---------------0-----------------|-----
------------------------------------|-----------------------------------|-----


-------2-------2-------2-------2-------2-------2-------2----------------------
---3-----3-------3-------3-------3-------3-------3-------3--------------------
-----2-----2-------2-------2-------2-------2-------2-------2------------------
-0-----------0-------0-------0-------0-------0-------0-------0----------------

rock on!

-krakpot
            
Submit corrections


        Rust lessons Hard to play? Try these video lessons and learn fast Rust lessons
        
↑ Back to top | Tablatures and chords for acoustic guitar and electric guitar, ukulele, drums are parodies/interpretations of the original songs. You may use it for private study, scholarship, research or language learning purposes only