» » »

Black Label Society - Concrete Jungle Tabs

Artists:  A B C D E F G H I J K L M N O P Q R S T U V W X Y Z # 

Concrete Jungle Tabs

(ver. 1) Click to play this song!
Black Label Society
 Rating:
4/5 (18 votes)

 Concrete Jungle lessons Tabs too difficult? Try these video lessons and learn fast
 
                




Dropped D tuning: D  G  C  F  A  D

Intro:
                                                                         X3           
|----------------------------------------------------------------------------|
|----------------------------------------------------------------------------|
|----------------------------------------------------------------------------|
|---4---2---------------------4---2------------------------------------------|
|-----------3---2---2/0---0-----------3---2---2/0---0------------------------|
|-2---2---2---2---2-----2---0---0---0---0---0-----0--------------------------|

Fine intro:
|----------------------------------------------------------------------------|
|----------------------------------------------------------------------------|
|----------------------------------------------------------------------------|
|---4---2---------------------4---2-------5/2--------------------------------|
|-----------3---2---2/0---0-----------1---3/4--------------------------------|
|-2---2---2---2---2-----2---0---0---0----------------------------------------|

Pre Strofa:                         pm.        pm.       Pm..                 x2 
|----------------------------------------------------------------------------|
|----------------------------------------------------------------------------|
|----------------------------------------------------------------------------|
|-----4---2------------------------------2-------4---5-4-2-------------------|
|-------------3---2---0-------4---2------0-------2---3-2-0-------------------|
|-2-----2---2---2---2-----0-----0----0-------0-------------------------------|

Strofa: 
 Pm............   st            pm...                                      H  x4
|----------------------------------------------------------------------------|
|----------------------------------------------------------------------------|
|----------------------------------------------------------------------------|
|----------------------------------------------------------------------------|
|----4-----4-----------5/7~~10-9-7~~------4-----4-----------5/7~~10-9--------|
|-0--2--0--2-/-0------------8--7-5~~---0--2--0--2-/-0------------8--7-5~~----|

Ritornello:
      Pm...              Pm      Pm             x3 
|------------------------------------------|
|------------------------------------------|
|------------------------------------0-----|
|-4--4--4--4--4--4--4--4---4--4----4-------|
|-0--2--2--0--2--2--0--2---0--2---3--------|
|------------------------------------------|

Pre Strofa:                         pm.        pm.       Pm..                 x2 
|----------------------------------------------------------------------------|
|----------------------------------------------------------------------------|
|----------------------------------------------------------------------------|
|-----4---2------------------------------2-------4---5-4-2-------------------|
|-------------3---2---0-------4---2------0-------2---3-2-0-------------------|
|-2-----2---2---2---2-----0-----0----0-------0-------------------------------|


Strofa: 
 Pm............   st            pm...                                      H  x4
|----------------------------------------------------------------------------|
|----------------------------------------------------------------------------|
|----------------------------------------------------------------------------|
|----------------------------------------------------------------------------|
|----4-----4-----------5/7~~10-9-7~~------4-----4-----------5/7~~10-9--------|
|-0--2--0--2-/-0------------8--7-5~~---0--2--0--2-/-0------------8--7-5~~----|


Ritornello:
      Pm...              Pm      Pm             x3 
|------------------------------------------|
|------------------------------------------|
|------------------------------------0-----|
|-4--4--4--4--4--4--4--4---4--4----4-------|
|-0--2--2--0--2--2--0--2---0--2---3--------|
|------------------------------------------|

Pre Solo:                           pm.        pm.       Pm..                 x4 
|----------------------------------------------------------------------------|
|----------------------------------------------------------------------------|
|----------------------------------------------------------------------------|
|-----4---2------------------------------2-------4---5-4-2-------------------|
|-------------3---2---0-------4---2------0-------2---3-2-0-------------------|
|-2-----2---2---2---2-----0-----0----0-------0-------------------------------|

Solo:                                         x2  
|-----------16-----------------------|14-----------14----------|
|-17^1tono~~~---15----16--------------|--17/14-17^~~--17/14-----|
|----------------14----15----16^~~~-|--------------------16^~~|
|-------------------------14--------|-------------------------|
|-----------------------------------|-------------------------|
|-----------------------------------|-------------------------|

                 Pm....................                     Legato
|-14-----------|--------------------------------------------------------19^---|
|---17/14------|-------------------------------------(14/16-x16volte)----------|
|--------16^/14|-----------------14-16----------14-16-------------------------|
|--------------|------------14-16----------14-16------------------------------|
|--------------|-------14-16----------14-16-----------------------------------|
|--------------|-12-14--------------------------------------------------------|

Pre Strofa:                         pm.        pm.       Pm..  x4   H
|------------------------------------------------------------|-----|
|------------------------------------------------------------|-----|
|------------------------------------------------------------|-----|
|-----4---2------------------------------2-------4---5-4-2---|-----|
|-------------3---2---0-------4---2------0-------2---3-2-0---|-----|
|-2-----2---2---2---2-----0-----0----0-------0---------------|--2~~|



Thank you soo much MELO, from Bullseye: Italian BLS Cover Band,Palermo Chapter
            
Submit corrections


        Concrete Jungle lessons Hard to play? Try these video lessons and learn fast Concrete Jungle lessons
        
↑ Back to top | Tablatures and chords for acoustic guitar and electric guitar, ukulele, drums are parodies/interpretations of the original songs. You may use it for private study, scholarship, research or language learning purposes only