» » »

Black Keys - The Only One Chords

Artists:  A B C D E F G H I J K L M N O P Q R S T U V W X Y Z # 

The Only One Chords

(ver. 1) Click to play this song!
Black Keys
 Rating:
4/5 (4 votes)

 The Only One lessons Tabs too difficult? Try these video lessons and learn fast
 
                -------------------------------------------------------------------------------
                             The Only One - The Black Keys
-------------------------------------------------------------------------------

Tuning: Standard EADGBE

E: X 7 9 9 9 7
F#m: X 9 11 11 10 9

F#m
Can't explain 
E
Nor can I contain
F#m 
Control
E 
You have on my soul 
F#m
It's all I do 
E
Is baby dream of you 
F#m
I'm falling down 
E
When you're around 

F#m
You're the only one 
E
You're the only one 
I'm so wrapped up in your gaze 
Hoping this is just a phase 
But when all is said and done 
I know you are still the one 
You're the only one 
You're the only one 
Cupids bow has stung 
Now you're the only one 

Mystery 
Is what this is to me 
I'm Giving up 
I'm having no luck 
Like a ghost 
The one that I love most 
She disappears
When I get near 

You're the only one 
You're the only one 
I'm so wrapped up in your gaze 
Hoping this is just a phase 
But when all is said and done 
I know you are still the one 
You're the only one 
You're the only one 
Cupids bow has stung 
Now you're the only one

Riff 1.
e|---------------------------------------------------------------------------|
B|---------------------------------------------------------------------------|
G|---11--11--11--9------9-----------11--11--11--9------9---------------------|
D|------------------11-----------------------------11------------------------|
A|---------------------------------------------------------------------------|
E|---------------------------------------------------------------------------|

e|---------------------------------------------------------------------------|
B|---------------------------------------------------------------------------|
G|---6--6--6-------------6--6--6---------------------------------------------|
D|------------9--6--9-------------9--6--9------------------------------------|
A|---------------------------------------------------------------------------|
E|---------------------------------------------------------------------------|



************************************

| /   slide up
| \   slide down
| h   hammer-on
| p   pull-off
| ~   vibrato
| +   harmonic
| x   Mute note
| b   Bend
| pb  Pre-bend
| br  Bend release
| pbr Pre-bend release
| brb Bend release bend

************************************
            
Submit corrections


        The Only One lessons Hard to play? Try these video lessons and learn fast The Only One lessons
        
↑ Back to top | Tablatures and chords for acoustic guitar and electric guitar, ukulele, drums are parodies/interpretations of the original songs. You may use it for private study, scholarship, research or language learning purposes only