Home » B » Black Keys »

Black Keys - Just Got To Be Tabs

Artists:  A B C D E F G H I J K L M N O P Q R S T U V W X Y Z # 

Just Got To Be Tabs

(ver. 1) Click to play this song!
Black Keys

 0:08
--------------------------------------|
--------------------------------------|
-----------7--------------------------|
-------------9--9\--------------------|
--------------------7---5---5/7-9-7\5-|
-7-7-7-7-7--------7---7---7-----------|

 0:15
---------------------------------------|
---------------------------------------|
-----------(7)---7h9p7-----------------|
---------------9-------9-------7/9-----|
-------------------------7---5-----9-7-|
-7-7-7-7-7-----------------7-----------|

 0:20
----------------------------------------|
----------------------------------------|
-----------7----------------------------|
-------------9--9\----------------------|
--------------------7---5---5/7-9-7\5---|
-7-7-7-7-7--------7---7---7-----------5-|

 0:24
-------------------------------------|
-------------------------------------|
-----------7-------------------------|
-------------9\----------------------|
-----------------7-7---5---5/7-9-7\5-|
-7-7-7-7-7-----------7---7-----------|

 0:29
-------------------------------------|
-------------------------------------|
-----------------9-9-9---7-7-7-9-9-9-|
---9-7-9h7-------9-9-9---7-7-7-9-9-9-|
-----------9-8-7-7-7-7-5-5-5-5-7-7-7-|
-7-----------------------------------|

 0:36
--------------------------------------------|
--------------------------------------------|
----------7-------------9-9-9---7-7-7-9-9-9-|
---9--7-9---9\7-7-------9-9-9---7-7-7-9-9-9-|
------------------9-8-7-7-7-9-5-5-5-5-7-7-7-|
-7------------------------------------------|

 0:41
-------------------------------------|
-------------------------------------|
-----------------9-9-9---7-7-7-9-9-9-|
---9-7-9h7-------9-9-9---7-7-7-9-9-9-|
-----------9-8-7-7-7-7-5-5-5-5-7-7-7-|
-7-----------------------------------|

 0:47
-------------------------------|
-------------------------------|
-----------------9-9-9---7-7-7-|
---9-7-9h7-------9-9-9---7-7-7-|
-----------9-8-7-7-7-7-5-5-5-5-|
-7-----------------------------|

 0:53
----------------------------|
----------------------------|
----------------------------|
----------------------------|
----5b1/2-------------5b1/2-|
-7--------7--5b1/4-7--------|

 1:02
--------------------------------------|
--------------------------------------|
-----------7--------------------------|
-------------9--9\--------------------|
--------------------7---5---5/7-9-7\5-|
-7-7-7-7-7--------7---7---7-----------|

 1:08
--------------------------------------|
--------------------------------------|
-----------7--------------------------|
-------------9--9\--------------------|
--------------------7---5---5/7-9-7\5-|
-7-7-7-7-7--------7---7---7-----------|

 1:13
-------------------------------------|
-------------------------------------|
-----------7---7h9p7-----------------|
-------------9-------9---------------|
-----------------------7---5/7-9-7\5-|
-7-7-7-7-7---------------7-----------|

 1:18
--------------------------------------|
--------------------------------------|
-----------7--------------------------|
-------------9--9\--------------------|
--------------------7---5---5/7-9-7\5-|
-7-7-7-7-7--------7---7---7-----------|

 1:24
---------------------------------------|
---------------------------------------|
-------------------9-9-9---7-7-7-9-9-9-|
---9-7-9h7---------9-9-9---7-7-7-9-9-9-|
-----------9---(7)-7-7-7-5-5-5-5-7-7-7-|
-7-------------------------------------|

 1:30
---------------------------------------------|
---------------------------------------------|
-----------7-------------9-9-9---7-7-7-9-9-9-|
----9--7-9---9-7---------9-9-9---7-7-7-9-9-9-|
-----------------9--8--7-7-7-7-5-5-5-5-7-7-7-|
-7-------------------------------------------|

 1:35
-------------------------------------|
-------------------------------------|
-----------------9-9-9---7-7-7-9-9-9-|
---9-7-9h7-------9-9-9---7-7-7-9-9-9-|
-----------9-8-7-7-7-7-5-5-5-5-7-7-7-|
-7-----------------------------------|

 1:41
---------------------------------------|
---------------------------------------|
-------------------9-9-9---7-7-7-9-9-9-|
----9--7-9h7-------9-9-9---7-7-7-9-9-9-|
-------------9-8-7-7-7-7-5-5-5-5-7-7-7-|
-7b1/4---------------------------------|

 1:47
----------------------------|
----------------------------|
----------------------------|
----------------------------|
----5b1/2-------------5b1/2-|
-7--------7--5b1/4-7--------|

 1:58
--------------------------------------|
--------------------------------------|
-----------7--------------------------|
-------------9--9\--------------------|
--------------------7---5---5/7-9-7\5-|
-7-7-7-7-7--------7---7---7-----------|

 2:03
----------------------------------------|
----------------------------------------|
-----------7----------------------------|
-------------9--9\----------------------|
--------------------7---5---5/7-9-7\5---|
-7-7-7-7-7--------7---7---7-----------5-|

 2:08
--------------------------------------|
--------------------------------------|
-----------7--------------------------|
-------------9--9\--------------------|
--------------------7---5---5/7-9-7\5-|
-7-7-7-7-7--------7---7---7-----------|

 2:13
--------------------------------------|
--------------------------------------|
-----------7--------------------------|
-------------9--9\--------------------|
--------------------7---5---5/7-9-7\5-|
-7-7-7-7-7--------7---7---7-----------|

 2:18
-----------------------------------------|
-----------------------------------------|
-----------------------------------------|
----------------------7---------7-7--9-9-|
--------5-5--7-7--8-9----9-9--9----------|
-7-7--7----------------------------------|

--------------------------------7-|
---------------------------7-10---|
-7h9-7-----------7-7--9-9---------|
-------9--9-9-9-------------------|
----------------------------------|
----------------------------------|

------------------------------7-|
-7-7-7--7-/10-7-/10-7-/10-/10-7-|
------------------------------7-|
--------------------------------|
--------------------------------|
--------------------------------|

 2:33
-------------------------------------|
-------------------------------------|
-----------------9-9-9---7-7-7-9-9-9-|
---9-7-9h7-------9-9-9---7-7-7-9-9-9-|
-----------9-8-7-7-7-7-5-5-5-5-7-7-7-|
-7-----------------------------------|

 2:38
--------------------------------------------|
--------------------------------------------|
----------7-------------9-9-9---7-7-7-9-9-9-|
---9--7-9---9\7-7-------9-9-9---7-7-7-9-9-9-|
------------------9-8-7-7-7-9-5-5-5-5-7-7-7-|
-7------------------------------------------|

 2:44
----------------------------------|
----------------------------------|
----------------------------------|
--------------------9-9-9---7-7-7-|
---9-7/9-7----------9-9-9---7-7-7-|
-----------9-8-5--7-7-7-7-5-5-5-5-|
-7--------------------------------|


 2:51
-------------------------------------------------------------|
-------------------------------------------------------------|
-----------7------------9-9-9---7-7-7-9-9-9------------------|
----9--7-9---9--7-------9-9-9---7-7-7-9-9-9------------------|
------------------9-8-7-7-7-7-5-5-5-5-7-7-7-9b1/4--x-9-9-----|
-7------------------------------------------7b1/4--7-7-7b1/4-|
            
Submit corrections

↑ Back to top | Tablatures and chords for acoustic guitar and electric guitar, ukulele, drums are parodies/interpretations of the original songs. You may use it for private study, scholarship, research or language learning purposes only