Home » B » Black Keys »

Black Keys - Little Black Submarines Bass

Artists:  A B C D E F G H I J K L M N O P Q R S T U V W X Y Z # 

Little Black Submarines Bass

(ver. 1) Click to play this song!
Black Keys
THE BLACK KEYS - EL CAMINO - LITTLE BLACK SUBMARINES

This is my interpretation of the song, I'm not saying it's the way they play it but it 
sounds perfectly playing along! Enjoy!

Intro (2:13)

G------------------|
D---5h7-5----------|
A---------5--3-----|
E---------------5--|

Verse

G----------------------------------------------|
D----------------------------------------------|
A---------------55-----------------------------|
E--55-00-3333-0----00--5555-0-55-00-3333-0-5~--| x4 (until chorus)

Chorus (Oh can it be...)

G--------------------------------------------|
D--------------------------------------------|
A---------------55----------0-55-0-----------|
E--55-00-3333-0----05-578-8--------5555-5555-| x2

G--------------------------------|
D--------------------------------|
A---------------0-55-0-----------|
E-------5-578-8--------5555-5555-| x2

Guitar Bends

G--------------------------|
D--------------------------|
A--------55----------------|
E--55-33----55-55-33-55----|


Stop-intro (3:36)

G-------------------------------------------|
D--5h7-5------------------------------------|
A--------7-5-3~-----------------------------|
E-------------------------------------------|

Solo=Verse

G----------------------------------------------|
D----------------------------------------------|
A---------------55-----------------------------|
E--55-00-3333-0----00--5555-0-55-00-3333-0-5~--| x2

Guitar Bends

G--------------------------|
D--------------------------|
A--------55----------------|
E--55-33----55-55-33-55----|

END
            
Submit corrections

↑ Back to top | Tablatures and chords for acoustic guitar and electric guitar, ukulele, drums are parodies/interpretations of the original songs. You may use it for private study, scholarship, research or language learning purposes only