Home » B » Black Keys »

Black Keys - Gold On The Ceiling Bass

Artists:  A B C D E F G H I J K L M N O P Q R S T U V W X Y Z # 

Gold On The Ceiling Bass

(ver. 1) Click to play this song!
Black Keys
Gold On The Ceiling - The Black Keys - El Camino

Hopefully this is correct :)

Intro (bass starts at 6 seconds)

G|------------|
D|------------|  (X4)
A|-------3-1--|
E|-3-3-3------|

G|---------------------------------------------------------|
D|---------------------------------------------------------|
A|-----------------3-3-3-1-------1-----------------3-3-3-1-|
E|-3-3-3-3-1-1-1-1---------3-3-3---3-3-3-3-1-1-1-1---------|

Verse
G|-----------------------------------------------------------------|
D|-----------------------------------------------------------------|
A|-------------------------3-3-3-1-------------------------3-3-3-1-|
E|-3-3-3-3-3-3-3-3-1-1-1-1---------3-3-3-3-3-3-3-3-1-1-1-1---------|

G|---------------------------------|
D|---------------------------------|
A|-----------------------1---------|
E|-3-3-3-3-1-1-1-1-0-0-0---3-3-3-3-|

Chorus
G|---------------------------------------------------------------  1-1 not 11-|
D|---------------------------------------------------------------  1-3 not 13-|
A|-------------33-------------33------------33-------------33-----------------|
E|-3-3-3-3-11------3313---11------13----11------3313---11------13-------------|

G|------------------------------------------------------------|
D|------------------------------------------------------------|
A|--------------------3-3-3-1-------------------------3-3-3-1-|
E|----3-3-3-3-1-1-1-1---------3-3-3-3-3-3-3-3-1-1-1-1---------|

G|-------------------------------------|
D|-------------------------------------|     (x2)
A|-------------------------3-3-3-1-----|
E|-3-3-3-3-3-3-3-3-1-1-1-1-------------|

Verse

Chorus x2

G|----------------------------------------------|
D|----------------------------------------------|
A|---------------31-------31-------31-------3---|
E|-3-3-3-3-3-3-3----3-3-3----3-3-3----3-3-3---3-|(hold last note)
            
Submit corrections

↑ Back to top | Tablatures and chords for acoustic guitar and electric guitar, ukulele, drums are parodies/interpretations of the original songs. You may use it for private study, scholarship, research or language learning purposes only