Home » B » Black Keys »

Black Keys - I Got Mine Bass

Artists:  A B C D E F G H I J K L M N O P Q R S T U V W X Y Z # 

I Got Mine Bass

(ver. 1) Click to play this song!
Black Keys
First off This is my own rendition of what I "Think"
Would work with this song, when me and my friends jam
to it, this makes sense! One thing to note is that
The solo my friend plays is different than Dans'.
let me know!
Intro/Walking down part:
G-----------------|
D-----------------|
A-3-321-----------|
E-------543-2-1---|

Main Riff:
G----------------------------------|
D-------------575------------------|
A---757-75757 ---7---757-75757-----|
E-0----------------0-----------353-|

I Got Mine bit:(I slap this part, its goes better with the drums)
G---------------7--------|Bend up
D-----5---0--------------|
A------------------------|
E--0----3---5------------|

Solo:
G----------------------------------|
D-------------575------------------|
A---757-75757 ---7---757-75757-----|
E-0----------------0-----------353-|
(My buddy solos in E so this works here)
Ending:
G-----------------|
D-----------------|
A-3-321-----------|
E-------543-2-1---|
            
Submit corrections

↑ Back to top | Tablatures and chords for acoustic guitar and electric guitar, ukulele, drums are parodies/interpretations of the original songs. You may use it for private study, scholarship, research or language learning purposes only