Home » B » Black Flag »

Black Flag - This Is Good Tabs

Artists:  A B C D E F G H I J K L M N O P Q R S T U V W X Y Z # 

This Is Good Tabs

(ver. 1) Click to play this song!
Black Flag
Riff A
e|----5-----5-----5-----5-----3-----3-----3-----3----|
B|----4-----4-----4-----4-----2-----2-----2-----2----|
G|----4-----4-----4-----4-----2-----2-----2-----2----|  X3
D|---------------------------------------------------|
A|-66----66----66----66----44----44----44----44------|
E|-44----44----44----44----22----22----22----22------|

Riff B
e|-------------|
B|-------------|
G|-32----------|     X3
D|----32-------|
A|-------32----|
E|----------3--|

Riff C
e|----------------|
B|----------------|
G|----------------|
D|----------------|      X1
A|-4---3---2------|
E|-2---1---0------|
            
Submit corrections

↑ Back to top | Tablatures and chords for acoustic guitar and electric guitar, ukulele, drums are parodies/interpretations of the original songs. You may use it for private study, scholarship, research or language learning purposes only