Home » B » Black Flag »

Black Flag - Slip It In Tabs

Artists:  A B C D E F G H I J K L M N O P Q R S T U V W X Y Z # 

Slip It In Tabs

(ver. 3) Click to play this song!
Black Flag
Here's the basic structure - without fills and solos - I leave it to you to  
put the pieces together. 
The intro. is played in the live solo (Check out Live '84 and Who's Got the  
10 1/2?) 
This is how I play the song so it probably differs from Greg. 
I'm doing this from memory so there may be mistakes. 
Corrections welcomed. 

---|-0----0--------0----0-------|---0--12-15b17r15-12-| 
---|---3----3--------3----3-----|---0--12-------------| 
-1-|----------1-------------1---|---------------------| 
---|------------0-------------0-|-2-------------------| 
---|----------------------------|-2-------------------| 
---|----------------------------|-0-------------------| 
Intro. - Bass enters first   2x                   Etc. 

-------------------------------------| 
-------------------------------------| 
-------------------------------------| 
-----------------------14------------| 
-2-2--2-2-2--2-2-----14--------------| 
-0-0--0-0-0--0-0---12----12\---------| 
Riff differs slightly throughout song. 

------------------------------|--------------------------------| 
------------------------------|--------------------------------| 
------------------------------|--------------------------------| 
-5-5-5--5-5-5--5--5-5-5-----2-|-11-11-11--11-9-----------------| 
-5-5-5--5-5-5--5--5-5-5-3-3-2-|-11-11-11--11-9-----------------| 
-3-3-3--3-3-3--3--3-3-3-----0-|--9--9--9---9-7-----------------| 
                           (2x)You say you don' want it... (2x) 

------------|-------------------------------| 
------------|-------------------------------| 
------------|-------------------------------| 
-7-7-7--7-5-|-2-----------------------------| 
-7-7-7--7-5-|-2-----------------------------| 
-5-5-5--5-3-|-0-----------------------------| 
"        2x    And then you slip it on in... 

-------------|---------------------------------| 
-------------|---------------------------------| 
-------------|---------------------------------| 
-5-5-5-5-5-5-|------------------5-5-5-----2----| 
-5-5-5-5-5-5-|------------------5-5-5-3-3-2----| 
-3-3-3-3-3-3-|------------------3-3-3-----0----| 
           3x You - Slip - It               In
            
Submit corrections

↑ Back to top | Tablatures and chords for acoustic guitar and electric guitar, ukulele, drums are parodies/interpretations of the original songs. You may use it for private study, scholarship, research or language learning purposes only