Home » B » Black Flag »

Black Flag - Nervous Breakdown Tabs

Artists:  A B C D E F G H I J K L M N O P Q R S T U V W X Y Z # 

Nervous Breakdown Tabs

(ver. 1) Click to play this song!
Black Flag
Black Flag - Nervous Breakdown 

verse x8
e|------------------------------------|
B|------------------------------------|
G|-------9----------------7-----------|
D|-9-9-9-9-9-9-9----7-7-7-7-7-7-7-----|
A|-9-9-9-7-9-9-9----7-7-7-5-7-7-7-----|
E|-7-7-7---7-7-7----5-5-5---5-5-5-----|

Chorus x2
e|-----------------------------------|--------------|
B|-----------------------------------|--------------|
G|-----------------------------------|--------------|
D|-5-5-5-5--7-7-7-7--9-9-9-9-9-9-9-9-|-9--7--5-7-5--|
A|-5-5-5-5--7-7-7-7--9-9-9-9-9-9-9-9-|-9--7--5-7-5--|
E|-3-3-3-3--5-5-5-5--7-7-7-7-7-7-7-7-|-7--5--3-5-3--|

Pre-Verse x1
e|-----------------------------------------------------|
B|-----------------------------------------------------|
G|-----------------------------------------------------|
D|-5-5-5-5--7-7-7-7--9-9-9-9-9-9-9-9--9-9-9-9-9-9-9-9--|
A|-5-5-5-5--7-7-7-7--9-9-9-9-9-9-9-9--9-9-9-9-9-9-9-9--|
E|-3-3-3-3--5-5-5-5--7-7-7-7-7-7-7-7--7-7-7-7-7-7-7-7--|

now play verse x6,chorus x2, pre-chorus x1
verse x6,chorus x2,pre-chorus x1
verse x6,chorus x4...let last note ring..then..

e|---|
B|---|
G|---|
D|-9-|
A|-9-|                                    
E|-7-|                                     "9"
                                            9
Whoa! Amazing how many times they can play  7 .

Joel Mercredi 02/06/03
            
Submit corrections

↑ Back to top | Tablatures and chords for acoustic guitar and electric guitar, ukulele, drums are parodies/interpretations of the original songs. You may use it for private study, scholarship, research or language learning purposes only