Home » B » Black Flag »

Black Flag - Black Coffee Tabs

Artists:  A B C D E F G H I J K L M N O P Q R S T U V W X Y Z # 

Black Coffee Tabs

(ver. 3) Click to play this song!
Black Flag
[Solo]
   bends and bend releases are long & gradual

e|---------------------|-----------5---5--|-8b10--------------|-10r8--------8---|
B|-7b9-----------------|-9r7---------7----|-------------------|-----------------|
G|---------------------|------------------|-------------------|-----------------|
D|---------------------|------------------|-------------------|-----------------|
A|---------------------|------------------|-------------------|-----------------|
E|---------------------|------------------|-------------------|-----------------|

e|-8---6--5---5--------|--------------------|---------------------|--------------------|
B|----------8---8-6-5--|-5-5-9-5---5--------|---------------------|--------------------|
G|---------------------|---------7---7-6-x--|-5~-----5-----5--7b9-|---------7~~~-------|
D|---------------------|--------------------|-----------7---------|--------------------|
A|---------------------|--------------------|---------------------|--------------------|
E|---------------------|--------------------|---------------------|--------------------|

e|---------------------------------|---------------------------------|---------------------------------|
B|---------------------------------|---------------------------------|---------------------------------|
G|-7-7-5-5-7-7-5-5-7-5-8-5-9-5-7-5-|-7-5-5-5-------------------------|---------------------------------|
D|---------------------------------|---------7-5---5-5-7h8-7-7-7h9-7-|-7h8-7-7-7h9-7-7---7-7---7-7-9---|
A|---------------------------------|-------------7-------------------|-----------------9-----9---------|
E|---------------------------------|---------------------------------|---------------------------------|

e|-----------------------7b--|-b8~---------------|-7-------6/7--9-----|-----------------------|
B|-------------------5-5-7b--|-b8~-------------7-|--------------------|-----------------------|
G|---------5-7-7-5-7---------|-------------------|--------------------|---5-5b7~--------------|
D|-7-7-5-7-------------------|-------------------|--------------------|-3--------3~-3b5r3~----|
A|---------------------------|-------------------|--------------------|-----------------------|
E|---------------------------|-------------------|--------------------|-----------------------|            
Submit corrections

↑ Back to top | Tablatures and chords for acoustic guitar and electric guitar, ukulele, drums are parodies/interpretations of the original songs. You may use it for private study, scholarship, research or language learning purposes only