» » »

Bill Withers - Aint No Sunshine Tabs

Artists:  A B C D E F G H I J K L M N O P Q R S T U V W X Y Z # 

Aint No Sunshine Tabs

(ver. 3) Click to play this song!
Bill Withers
 Rating:
4.1/5 (31 vote)

 Aint No Sunshine lessons Tabs too difficult? Try these video lessons and learn fast
 
                [Verse 1]
e|----5-----5-|----0-----3-|----5------------|----5-----5-|----0-----3-|----5------------|
B|----5-----5-|----0-----3-|----5------------|----5-----5-|----0-----3-|----5------------|
G|----5-----5-|----0-----4-|----5------------|----5-----5-|----0-----4-|----5------------|
D|----5-----5-|----0-----3-|----5------------|----5-----5-|----0-----3-|----5------------|
A|----7-----7-|----2-----5-|----7------------|----7-----7-|----2-----5-|----7-------3--5-|
E|-5-----5----|-0-----3----|-5-------0--0--3-|-5--5--5--5-|-0-----3----|-5-------5-------|

e|----7-----7-|----7-----7-|----5-----5-|----5-----5-|
B|----8-----8-|----8-----8-|----6-----6-|----6-----6-|
G|----7-----7-|----7-----7-|----5-----5-|----5-----5-|
D|----9-----9-|----9-----9-|----7-----7-|----7-----7-|
A|-7-----7----|-7-----7----|-5-----5----|-5-----5----|
E|------------|------------|------------|------------|

[Verse 2]
e|----5-----5-|----0-----3-|----5------------|----5-----5-|----0-----3-|----5--------------|
B|----5-----5-|----0-----3-|----5------------|----5-----5-|----0-----3-|----5--------------|
G|----5-----5-|----0-----4-|----5------------|----5-----5-|----0-----4-|----5--------------|
D|----5-----5-|----0-----3-|----5------------|----5-----5-|----0-----3-|----5--------------|
A|----7-----7-|----2-----5-|----7------------|----7-----7-|----2-----5-|----7---------3--5-|
E|-5-----5--5-|-0-----3----|-5-------0--0--3-|-5-----5----|-0-----3----|-5-------5-5-------|
                                                                                     (7 bar ring out)
e|----7-----7-|----7-----7-|----5-----5-|----5-----5-|----5-----5-|----0-----3-|----5~------| 
B|----8-----8-|----8-----8-|----6-----6-|----6-----6-|----5-----5-|----0-----3-|----5~------|
G|----7-----7-|----7-----7-|----5-----5-|----5-----5-|----5-----5-|----0-----4-|----5~------|
D|----9-----9-|----9-----9-|----7-----7-|----7-----7-|----5-----5-|----0-----3-|----5~------|
A|-7-----7----|-7-----7----|-5-----5----|-5-----5----|----7-----7-|----2-----5-|----7~------|
E|------------|------------|------------|------------|-5-----5----|-0-----3--3-|-5~---------|

[Verse 3]
e|----5-----5-|----0-----3-|----5------------|----5-----5-|----0-----3-|----5------------|
B|----5-----5-|----0-----3-|----5------------|----5-----5-|----0-----3-|----5------------|
G|----5-----5-|----0-----4-|----5------------|----5-----5-|----0-----4-|----5------------|
D|----5-----5-|----0-----3-|----5------------|----5-----5-|----0-----3-|----5------------|
A|----7-----7-|----2-----5-|----7------------|----7-----7-|----2-----5-|----7------------|
E|-5-----5----|-0-----3----|-5-------0--0--3-|-5--5--5--5-|-0-----3----|-5-------0--0--3-|

e|----5-----5-|----0-----3-|----5--------------|----7-----7-|----7-----7-|----5-----5-|----5-----5-|
B|----5-----5-|----0-----3-|----5--------------|----8-----8-|----8-----8-|----6-----6-|----6-----6-|
G|----5-----5-|----0-----4-|----5--------------|----7-----7-|----7-----7-|----5-----5-|----5-----5-|
D|----5-----5-|----0-----3-|----5--------------|----9-----9-|----9-----9-|----7-----7-|----7-----7-|
A|----7-----7-|----2-----5-|----7---------3--5-|-7-----7----|-7-----7----|-5-----5----|-5-----5----|
E|-5--5--5--5-|-0-----3----|-5-------5-5-------|------------|------------|------------|------------|

[Outro]
e|----5-----5-|----0-----3-|----5------------|----5-----5-|----0-----3-|----5------------|
B|----5-----5-|----0-----3-|----5------------|----5-----5-|----0-----3-|----5------------|
G|----5-----5-|----0-----4-|----5------------|----5-----5-|----0-----4-|----5------------|
D|----5-----5-|----0-----3-|----5------------|----5-----5-|----0-----3-|----5------------|
A|----7-----7-|----2-----5-|----7------------|----7-----7-|----2-----5-|----7------------|
E|-5-----5----|-0-----3----|-5-------0--0--3-|-5--5--5--5-|-0-----3----|-5-------0--0--3-|

e|----5-----5-|----0-----3-|-5~--------------|
B|----5-----5-|----0-----3-|-5~--------------|
G|----5-----5-|----0-----4-|-5~--------------|
D|----5-----5-|----0-----3-|-5~--------------|
A|----7-----7-|----2-----5-|-7~--------------|
E|-5-----5----|-0-----3----|-5~--------------|            
Submit corrections


        Aint No Sunshine lessons Hard to play? Try these video lessons and learn fast Aint No Sunshine lessons
        
↑ Back to top | Tablatures and chords for acoustic guitar and electric guitar, ukulele, drums are parodies/interpretations of the original songs. You may use it for private study, scholarship, research or language learning purposes only