» » »

Bill Withers - Aint No Sunshine Tabs

Artists:  A B C D E F G H I J K L M N O P Q R S T U V W X Y Z # 

Aint No Sunshine Tabs

(ver. 1) Click to play this song!
Bill Withers
 Rating:
4/5 (4 votes)

 Aint No Sunshine  lessons Tabs too difficult? Try these video lessons and learn fast
 
                Tuning: Standard

Verse 1
e|----------------------------------------------------------------------------------|
B|----------------------------------------------------------------------------------|
G|--------------5---5\4-------------------0------4-------5--------------------------|   2X
D|--------5-7------------5/7-----7-------0------3-------5---------------------------|
A|--5/7-------------------------0----------------------0----------------------------|
E|---------------------------------------0------3-----------------------------------|
Aint no sunshine when she's gone, It's not warm when she's away

e|----------------------------------------------------------------------------------------------------|
B|---------------5---3--5--3---3p1-3-1--------------1h3-1---------------------------------------------|
G|---------5-7------------------------------2-0-2-2-----------2-0-2-1/2------0------4---------5-------|
D|--5/7---------------------------------------------------------------------------0------3---------5--|
A|-----------------------------------------------------------------------------------------------0----|
E|-------------------------------------------------------------------------------0-----3--------------|
Ain't no sunshine when she's gone, And she's always gone too long, Anytime she goes away!

Verse 2
e|----------------------------------------------------------------------------------|
B|----------------------------------------------------------------------------------|
G|--------------5---5\4-------------------0------4-------5--------------------------|  2X
D|--------5-7------------5/7-----7-------0------3-------5---------------------------|
A|--5/7-------------------------0----------------------0----------------------------|
E|---------------------------------------0------3-----------------------------------|
Wonder this time where she's gone, Wonder if she's gone to stay

e|----------------------------------------------------------------------------------------------------|
B|---------------5---3--5--3---3p1-3-1--------------1h3-1---------------------------------------------|
G|---------5-7------------------------------2-0-2-2-----------2-0-2-1/2------0------4---------5-------|
D|--5/7---------------------------------------------------------------------------0------3---------5--|
A|-----------------------------------------------------------------------------------------------0----|
E|-------------------------------------------------------------------------------0-----3--------------|
Ain't no sunshine when she's gone, And this house just ain't no home Anytime she goes away!

Breakdown
e|---------------------------------------------------------------------------------|
B|---------------------------------------------------------------------------------|
G|---------------------------------------------------------------------------------|    5X
D|--5-7-5-7-5-7-5-7-5-7\4----------------------------------------------------------|
A|---------------------------------------------------------------------------------|
E|---------------------------------------------------------------------------------|
 and I know I know I know I know I know I know I know I know I know I know I know I know I know
 I know I know I know I know I know I know I know I know I know I know I know I know I know

Breakdown continues-
e|------------------------------------------------------------------------------------------------------------|
B|-----------------------8-8----------------------------------------------------------------------------------|
G|----------5~-7/9-9-------9-9\7p5--7p5--7p5--7/9---7-5--------------------------0------4---------5-----------|
D|-7-7-7-----------------------------------------------------------7-5-7--7------------0------3---------5-----|
A|----------------------------------------------------------------------------0----------------------------0--|
E|---------------------------------------------------------------------------------------0-----3--------------|
Hey, I oughtta leave young thing alone       But ain't no sunshine when she's gone

Verse 3
e|----------------------------------------------------------------------------------|
B|----------------------------------------------------------------------------------|
G|--------------5---5\4-------------------0------4-------5--------------------------|  2X
D|--------5-7------------5/7-----7-------0------3-------5---------------------------|
A|--5/7-------------------------0----------------------0----------------------------|
E|---------------------------------------0------3-----------------------------------|
 Ain't no sunshine when she's gone, Only darkness every day

                                                   (Outro)
e|-----------------------------------------------------|        
B|---------------5---3--5--3---3p1-3-1-----------------|       
G|---------5-7------------------------------2-0-2-2----|        
D|--5/7------------------------------------------------|        
A|-----------------------------------------------------|        
E|-----------------------------------------------------|        
Ain't no sunshine when she's gone  And this house just ain't no home
(Anytime she goes away 4X)

e|-----------------------------------------------|
B|---1h3-1---------------------------------------|
G|-----------2-0-2-1/2------0------4---------5---|  4X
D|----------------------------0------3---------5-|
A|-------------------------------------------0---|
E|-------------------------0-----3---------------|            
Submit corrections


        Aint No Sunshine  lessons Hard to play? Try these video lessons and learn fast Aint No Sunshine  lessons
        
↑ Back to top | Tablatures and chords for acoustic guitar and electric guitar, ukulele, drums are parodies/interpretations of the original songs. You may use it for private study, scholarship, research or language learning purposes only