» » »

Bill Haley And The Comets - See You Later Alligator Tabs

Artists:  A B C D E F G H I J K L M N O P Q R S T U V W X Y Z # 

See You Later Alligator Tabs

(ver. 2) Click to play this song!
Bill Haley And The Comets
 Rating:
3/5 (24 votes)

 See You Later Alligator lessons Tabs too difficult? Try these video lessons and learn fast
 
                Gtr I (E A D G B E) - 'Rudi Pompilli - Sax'
Gtr II (E A D G B E) - 'Bill Haley - Electric Guitar '
Gtr III (E A D G B E) - 'Franny Beecher - Electric Guitar'


 Intro                   1st & 2nd Verses
  Q=160(8=s8)
  N.C.                    Eb
 4/4
  Gtr I
  W          W            E E q    Q   E E
|----------|----------||-------------------|
|----------|----------||o---------/9---8---|
|----------|----------||------8----------8-|
|----------|----------||----8--------------|
|----------|----------||o------------------|
|----------|----------||-------------------|
|
| Gtr II
| W          W            E E E E  E E E E
|----------|----------||-------------------|
|----------|----------||o-8-8-8-8--8-8-8-8-|
|----------|----------||--8-8-8-8--8-8-8-8-|
|----------|----------||--8-8-8-8--8-8-8-8-|
|----------|----------||o-6-6-6-6--6-6-6-6-|
|----------|----------||-------------------|


  W                 E E q    Q   E E   W
|-----------------|------------------|-----------------|
|-----------------|---------/9---8---|-----------------|
|-----------------|-----8----------8-|-----------------|
|-----------------|---8--------------|-----------------|
|-----------------|------------------|-----------------|
|-----------------|------------------|-----------------|
|
| E E E E E E E E   E E E E  E E E E   E E E E E E E E
|-----------------|------------------|-----------------|
|-8-8-8-8-8-8-8-8-|-8-8-8-8--8-8-8-8-|-8-8-8-8-8-8-8-8-|
|-8-8-8-8-8-8-8-8-|-8-8-8-8--8-8-8-8-|-8-8-8-8-8-8-8-8-|
|-8-8-8-8-8-8-8-8-|-8-8-8-8--8-8-8-8-|-8-8-8-8-8-8-8-8-|
|-6-6-6-6-6-6-6-6-|-6-6-6-6--6-6-6-6-|-6-6-6-6-6-6-6-6-|
|-----------------|------------------|-----------------|


  Ab                                   Eb
  E E q    Q   E E   W                 E E q    Q   E E
|------------------|-----------------|------------------|
|---------/9---7---|-----------------|---------/9---8---|
|-----8----------8-|-----------------|-----8----------8-|
|---8--------------|-----------------|---8--------------|
|------------------|-----------------|------------------|
|------------------|-----------------|------------------|
|
| E E E E  E E E E   E E E E E E E E   E E E E  E E E E
|------------------|-----------------|------------------|
|------------------|-----------------|-8-8-8-8--8-8-8-8-|
|-5-5-5-5--5-5-5-5-|-5-5-5-5-5-5-5-5-|-8-8-8-8--8-8-8-8-|
|-6-6-6-6--6-6-6-6-|-6-6-6-6-6-6-6-6-|-8-8-8-8--8-8-8-8-|
|-6-6-6-6--6-6-6-6-|-6-6-6-6-6-6-6-6-|-6-6-6-6--6-6-6-6-|
|-4-4-4-4--4-4-4-4-|-4-4-4-4-4-4-4-4-|------------------|


                    Bb
  W                 E E q    Q   E E   W
|-----------------|------------------|-----------------|
|-----------------|---------/6---7---|-----------------|
|-----------------|-----8----------8-|-----------------|
|-----------------|---8--------------|-----------------|
|-----------------|------------------|-----------------|
|-----------------|------------------|-----------------|
|
| E E E E E E E E   E E E E  E E E E   E E E E E E E E
|-----------------|------------------|-----------------|
|-8-8-8-8-8-8-8-8-|------------------|-----------------|
|-8-8-8-8-8-8-8-8-|-7-7-7-7--7-7-7-7-|-7-7-7-7-7-7-7-7-|
|-8-8-8-8-8-8-8-8-|-8-8-8-8--8-8-8-8-|-8-8-8-8-8-8-8-8-|
|-6-6-6-6-6-6-6-6-|-8-8-8-8--8-8-8-8-|-8-8-8-8-8-8-8-8-|
|-----------------|-6-6-6-6--6-6-6-6-|-6-6-6-6-6-6-6-6-|


                                   Chorus
  Eb                                Eb
  E E q    Q   E E   W              E E  E E E E  E E
|------------------|-------------||-------------------|
|---------/9---8---|-------------||-------------------|
|-----8----------8-|-------------||---8------8-8------|
|---8--------------|-------------||-----10-8-----10-8-|
|------------------|-------------||-------------------|
|------------------|-------------||-------------------|
|
| E E E E  E E E E   E E Q  H       E E  E E E E  E E
|------------------|-------------||-------------------|
|-8-8-8-8--8-8-8-8-|-8-----------||-8-8--8-8-8-8--8-8-|
|-8-8-8-8--8-8-8-8-|-8-----------||-8-8--8-8-8-8--8-8-|
|-8-8-8-8--8-8-8-8-|-8-----------||-8-8--8-8-8-8--8-8-|
|-6-6-6-6--6-6-6-6-|-6-----------||-6-6--6-6-6-6--6-6-|
|------------------|-------------||-------------------|
|
| Gtr III
| W                  W              H        E E  E E
|------------------|-------------||-------------------|
|------------------|-------------||----------8-8------|
|------------------|-------------||--------------10-8-|
|------------------|-------------||-------------------|
|------------------|-------------||-------------------|
|------------------|-------------||-------------------|


  E E Q   H         E E  E E E E  E E   E E Q   H
|-----------------|-------------------|-----------------|
|-----------------|-------------------|-----------------|
|-8---------------|---8------8-8------|-8---------------|
|-----------------|-----10-8-----10-8-|-----------------|
|-----------------|-------------------|-----------------|
|-----------------|-------------------|-----------------|
|
| E E E E E E E E   E E  E E E E  E E   E E E E E E E E
|-----------------|-------------------|-----------------|
|-8-8-8-8-8-8-8-8-|-8-8--8-8-8-8--8-8-|-8-8-8-8-8-8-8-8-|
|-8-8-8-8-8-8-8-8-|-8-8--8-8-8-8--8-8-|-8-8-8-8-8-8-8-8-|
|-8-8-8-8-8-8-8-8-|-8-8--8-8-8-8--8-8-|-8-8-8-8-8-8-8-8-|
|-6-6-6-6-6-6-6-6-|-6-6--6-6-6-6--6-6-|-6-6-6-6-6-6-6-6-|
|-----------------|-------------------|-----------------|
|
| E E Q   H         H        E E  E E   E E Q   H
|-----------------|-------------------|-----------------|
|-8---------------|----------8-8------|-8---------------|
|-----------------|--------------10-8-|-----------------|
|-----------------|-------------------|-----------------|
|-----------------|-------------------|-----------------|
|-----------------|-------------------|-----------------|


  Ab                                    Eb
  E E  E E E E  E E   E E Q   H         E E  E E E E  E E
|-------------------|-----------------|-------------------|
|-------------------|-----------------|-------------------|
|---8------8-8------|-8---------------|---8------8-8------|
|-----10-8-----10-8-|-----------------|-----10-8-----10-8-|
|-------------------|-----------------|-------------------|
|-------------------|-----------------|-------------------|
|
| E E  E E E E  E E   E E E E E E E E   E E  E E E E  E E
|-------------------|-----------------|-------------------|
|-------------------|-----------------|-8-8--8-8-8-8--8-8-|
|-5-5--5-5-5-5--5-5-|-5-5-5-5-5-5-5-5-|-8-8--8-8-8-8--8-8-|
|-6-6--6-6-6-6--6-6-|-6-6-6-6-6-6-6-6-|-8-8--8-8-8-8--8-8-|
|-6-6--6-6-6-6--6-6-|-6-6-6-6-6-6-6-6-|-6-6--6-6-6-6--6-6-|
|-4-4--4-4-4-4--4-4-|-4-4-4-4-4-4-4-4-|-------------------|
|
| H        E E  E E   E E Q   H         H        E E  E E
|-------------------|-----------------|-------------------|
|----------7-7--6---|-7---------------|----------8-8------|
|-----------------8-|-----------------|--------------10-8-|
|-------------------|-----------------|-------------------|
|-------------------|-----------------|-------------------|
|-------------------|-----------------|-------------------|


                    Bb
  E E Q   H         E  E E E  E  E E E    E E Q   H
|-----------------|--------------------|------------------|
|-----------------|--------------------|------------------|
|-8---------------|---10-7---10-10-7---|-10---------------|
|-----------------|--------8---------8-|------------------|
|-----------------|--------------------|------------------|
|-----------------|--------------------|------------------|
|
| E E E E E E E E   E  E E E  E  E E E    E E E E E E E E
|-----------------|--------------------|------------------|
|-8-8-8-8-8-8-8-8-|--------------------|------------------|
|-8-8-8-8-8-8-8-8-|-7--7-7-7--7--7-7-7-|--7-7-7-7-7-7-7-7-|
|-8-8-8-8-8-8-8-8-|-8--8-8-8--8--8-8-8-|--8-8-8-8-8-8-8-8-|
|-6-6-6-6-6-6-6-6-|-8--8-8-8--8--8-8-8-|--8-8-8-8-8-8-8-8-|
|-----------------|-6--6-6-6--6--6-6-6-|--6-6-6-6-6-6-6-6-|
|
| E E Q   H         H         E  E E E    E E Q   H
|-----------------|--------------------|------------------|
|-8---------------|-----------9--9-6---|--9---------------|
|-----------------|------------------7-|------------------|
|-----------------|--------------------|------------------|
|-----------------|--------------------|------------------|
|-----------------|--------------------|------------------|


  1.                                 2.
  Eb                                  Eb
  E E  E E E E  E E   E E Q  H        E E  E E E E  E E
|-------------------|--------------||-------------------|
|-------------------|-------------o||-------------------|
|---8------8-8------|-8------------||---8------8-8------|
|-----10-8-----10-8-|--------------||-----10-8-----10-8-|
|-------------------|-------------o||-------------------|
|-------------------|--------------||-------------------|
|
| E E  E E E E  E E   E E Q  H        E E  E E E E  E E
|-------------------|--------------||-------------------|
|-8-8--8-8-8-8--8-8-|-8-----------o||-8-8--8-8-8-8--8-8-|
|-8-8--8-8-8-8--8-8-|-8------------||-8-8--8-8-8-8--8-8-|
|-8-8--8-8-8-8--8-8-|-8------------||-8-8--8-8-8-8--8-8-|
|-6-6--6-6-6-6--6-6-|-6-----------o||-6-6--6-6-6-6--6-6-|
|-------------------|--------------||-------------------|
|
| H        E E  E E   E E Q  H        W
|-------------------|--------------||-------------------|
|----------8-8------|-8-----------o||-------------------|
|--------------10-8-|--------------||-------------------|
|-------------------|--------------||-------------------|
|-------------------|-------------o||-------------------|
|-------------------|--------------||-------------------|


                                   Interlude
  N.C.                              N.C.
  W                                  H                 Q         Q
|--------------------------------||-------------------18\----------------|
|--------------------------------||--------------------------------------|
|--------------------------------||--------------------------------------|
|--------------------------------||--------------------------------------|
|--------------------------------||--------------------------------------|
|--------------------------------||--------------------------------------|
|
|      |--3--|  |--3--|  |--3--|              |--3--|  |--3---|  |--3--|
| E E  E  E  E  E  E  E  E  E  E     E     E  E  E  E  E   E  E  E  E  E
|-----11-11-11-11-11-11-11-11-11-||-------11-11-11-11-11--11-11-11-11-11-|
|--------------------------------||-15b16--------------------------------|
|-8------------------------------||--------------------------------------|
|--------------------------------||--------------------------------------|
|--------------------------------||--------------------------------------|
|--------------------------------||--------------------------------------|
|
| Gtr III
|      |--3--|  |--3--|  |--3--|
| Q    E  E  E  E  E  E  E  E  E     Q        Q        H
|-----18-18-18-18-18-18-18-18-18-||--------------------------------------|
|-----16-16-16-16-16-16-16-16-16-||-16-----------------------------------|
|--------------------------------||-18b20--------------------------------|
|--------------------------------||--------------------------------------|
|--------------------------------||--------------------------------------|
|--------------------------------||--------------------------------------|


   Q        Q        Q         Q
|-18\---------------18\-----------------|
|---------------------------------------|
|---------------------------------------|
|---------------------------------------|
|---------------------------------------|
|---------------------------------------|
|
|           |--3--|  |--3---|  |--3--|
|  E     E  E  E  E  E   E  E  E  E  E
|-------11-11-11-11-11--11-11-11-11-11--|
|-15b16---------------------------------|
|---------------------------------------|
|---------------------------------------|
|---------------------------------------|
|---------------------------------------|
|
|  W
|---------------------------------------|
|---------------------------------------|
|---------------------------------------|
|---------------------------------------|
|---------------------------------------|
|---------------------------------------|


   Q         Q        H                    W
|-18\----------------------------------|------------------------------------------------|
|--------------------------------------|------------------------------------------------|
|--------------------------------------|------------------------------------------------|
|--------------------------------------|------------------------------------------------|
|--------------------------------------|------------------------------------------------|
|--------------------------------------|------------------------------------------------|
|
|  |--3---|  |--3--|  |--3--|  |--3--|     |--3---|  |--3--|  |--3--|  |------3-------|
|  E   E  E  E  E  E  E  E  E  E  E  E    +E   E  E  E  E  E  E  E  E  E  E           E
|-----11-11----11-11----11-11----11-11-|-(11)-------------------------------------------|
|-15--------15-------15-------15-------|------15-14-13-12-11----------------------------|
|--------------------------------------|---------------------14-13-12-------------------|
|--------------------------------------|------------------------------16-15----------14-|
|--------------------------------------|------------------------------------------------|
|--------------------------------------|------------------------------------------------|
|
|                                        Gtr III
|  W                                       H                  Q        E     E
|--------------------------------------|------------------------------11----14b14.5=====|
|--------------------------------------|------------------------------11----13b13.5=====|
|--------------------------------------|------------------------------------------------|
|--------------------------------------|------------------------------------------------|
|--------------------------------------|------------------------------------------------|
|--------------------------------------|------------------------------------------------|


    W
|----------------------------------------|
|----------------------------------------|
|----------------------------------------|
|----------------------------------------|
|----------------------------------------|
|----------------------------------------|
|
|   Q     Q            H
|----------------------------------------|
|----------------------------------------|
|----------------------------------------|
|--13\-----------------------------------|
|----------------------------------------|
|----------------------------------------|
|
|  +Q     E  E        +Q     E  E
|-(14)r--11-14b14.5==(14)r--11-14b14.5===|
|-(13)r--11-13b13.5==(13)r--11-13b13.5===|
|----------------------------------------|
|----------------------------------------|
|----------------------------------------|
|----------------------------------------|


    E    E   E  E         H                    W
|-------18\----18\-------------------------|---------------------------------------|
|------------------------------------------|---------------------------------------|
|------------------------------------------|---------------------------------------|
|------------------------------------------|---------------------------------------|
|------------------------------------------|---------------------------------------|
|------------------------------------------|---------------------------------------|
|
| Gtr III
|  +Q        E  E        +Q     E  E          +Q     E  E        +Q     E  E
|-(14)r-----11-14b14.5==(14)r--11-14b14.5==|=(14)r--11-14b14.5==(14)r--11-14b14.5==|
|-(13)r-----11-13b13.5==(13)r--11-13b13.5==|=(13)r--11-13b13.5==(13)r--11-13b13.5==|
|------------------------------------------|---------------------------------------|
|------------------------------------------|---------------------------------------|
|------------------------------------------|---------------------------------------|
|------------------------------------------|---------------------------------------|


    E    E   E  E         H                    W
|-------18\----18\-------------------------|----------------------------------------|
|------------------------------------------|----------------------------------------|
|------------------------------------------|----------------------------------------|
|------------------------------------------|----------------------------------------|
|------------------------------------------|----------------------------------------|
|------------------------------------------|----------------------------------------|
|
|  +Q        E  E        +Q     E  E          +Q     E  E        +Q     E  E
|-(14)r-----11-14b14.5==(14)r--11-14b14.5==|=(14)r--11-14b14.5==(14)r--11-14b14.5===|
|-(13)r-----11-13b13.5==(13)r--11-13b13.5==|=(13)r--11-13b13.5==(13)r--11-13b13.5===|
|------------------------------------------|----------------------------------------|
|------------------------------------------|----------------------------------------|
|------------------------------------------|----------------------------------------|
|------------------------------------------|----------------------------------------|


    H          Q    E  E    E E  E  E  E E  E  E
|------------------------|-----------------------|
|------------------------|-----------------------|
|------------------------|-----------------------|
|------------------13-13-|-13---13-13-13---13-13-|
|------------------------|-----------------------|
|------------------------|-----------------------|
|
|  +Q     E E  E E  E  E    E E  E  E  E E  E  E
|-(14)---11---11---11-11-|-11---11-11-11---11-11-|
|-(13)r--11---11---11-11-|-11---11-11-11---11-11-|
|------------------------|-----------------------|
|------------------------|-----------------------|
|------------------------|-----------------------|
|------------------------|-----------------------|


                 3rd Verse
                  Eb
   E E Q  H       E E q    Q   E E
|--------------||-------------------|
|--------------||---------/9---8----|
|--------------||-----8----------8--|
|-13-----------||---8---------------|
|--------------||-------------------|
|--------------||-------------------|
|
|  E E Q  H       E E E E  E E E E
|-11-----------||-------------------|
|-11-----------||-8-8-8-8--8-8-8-8--|
|--------------||-8-8-8-8--8-8-8-8--|
|--------------||-8-8-8-8--8-8-8-8--|
|--------------||-6-6-6-6--6-6-6-6--|
|--------------||-------------------|


  W                 E E q    Q   E E   W
|-----------------|------------------|-----------------|
|-----------------|---------/9---8---|-----------------|
|-----------------|-----8----------8-|-----------------|
|-----------------|---8--------------|-----------------|
|-----------------|------------------|-----------------|
|-----------------|------------------|-----------------|
|
| E E E E E E E E   E E E E  E E E E   E E E E E E E E
|-----------------|------------------|-----------------|
|-8-8-8-8-8-8-8-8-|-8-8-8-8--8-8-8-8-|-8-8-8-8-8-8-8-8-|
|-8-8-8-8-8-8-8-8-|-8-8-8-8--8-8-8-8-|-8-8-8-8-8-8-8-8-|
|-8-8-8-8-8-8-8-8-|-8-8-8-8--8-8-8-8-|-8-8-8-8-8-8-8-8-|
|-6-6-6-6-6-6-6-6-|-6-6-6-6--6-6-6-6-|-6-6-6-6-6-6-6-6-|
|-----------------|------------------|-----------------|


  Ab                                   Eb
  E E q    Q   E E   W                 E E q    Q   E E
|------------------|-----------------|------------------|
|---------/9---7---|-----------------|---------/9---8---|
|-----8----------8-|-----------------|-----8----------8-|
|---8--------------|-----------------|---8--------------|
|------------------|-----------------|------------------|
|------------------|-----------------|------------------|
|
| E E E E  E E E E   E E E E E E E E   E E E E  E E E E
|------------------|-----------------|------------------|
|------------------|-----------------|-8-8-8-8--8-8-8-8-|
|-5-5-5-5--5-5-5-5-|-5-5-5-5-5-5-5-5-|-8-8-8-8--8-8-8-8-|
|-6-6-6-6--6-6-6-6-|-6-6-6-6-6-6-6-6-|-8-8-8-8--8-8-8-8-|
|-6-6-6-6--6-6-6-6-|-6-6-6-6-6-6-6-6-|-6-6-6-6--6-6-6-6-|
|-4-4-4-4--4-4-4-4-|-4-4-4-4-4-4-4-4-|------------------|


                    Bb
  W                 E E q    Q   E E   W
|-----------------|------------------|-----------------|
|-----------------|---------/6---7---|-----------------|
|-----------------|-----8----------8-|-----------------|
|-----------------|---8--------------|-----------------|
|-----------------|------------------|-----------------|
|-----------------|------------------|-----------------|
|
| E E E E E E E E   E E E E  E E E E   E E E E E E E E
|-----------------|------------------|-----------------|
|-8-8-8-8-8-8-8-8-|------------------|-----------------|
|-8-8-8-8-8-8-8-8-|-7-7-7-7--7-7-7-7-|-7-7-7-7-7-7-7-7-|
|-8-8-8-8-8-8-8-8-|-8-8-8-8--8-8-8-8-|-8-8-8-8-8-8-8-8-|
|-6-6-6-6-6-6-6-6-|-8-8-8-8--8-8-8-8-|-8-8-8-8-8-8-8-8-|
|-----------------|-6-6-6-6--6-6-6-6-|-6-6-6-6-6-6-6-6-|


                                   4th Verse
  Eb                                Eb
  E E q    Q   E E   W              E E  E E E E  E E
|------------------|-------------||-------------------|
|---------/9---8---|-------------||-------------------|
|-----8----------8-|-------------||---8------8-8------|
|---8--------------|-------------||-----10-8-----10-8-|
|------------------|-------------||-------------------|
|------------------|-------------||-------------------|
|
| E E E E  E E E E   E E Q  H       E E  E E E E  E E
|------------------|-------------||-------------------|
|-8-8-8-8--8-8-8-8-|-8-----------||-8-8--8-8-8-8--8-8-|
|-8-8-8-8--8-8-8-8-|-8-----------||-8-8--8-8-8-8--8-8-|
|-8-8-8-8--8-8-8-8-|-8-----------||-8-8--8-8-8-8--8-8-|
|-6-6-6-6--6-6-6-6-|-6-----------||-6-6--6-6-6-6--6-6-|
|------------------|-------------||-------------------|
|
| Gtr III
| W                  W              H        E E  E E
|------------------|-------------||-------------------|
|------------------|-------------||----------8-8------|
|------------------|-------------||--------------10-8-|
|------------------|-------------||-------------------|
|------------------|-------------||-------------------|
|------------------|-------------||-------------------|


  E E Q   H         E E  E E E E  E E   E E Q   H
|-----------------|-------------------|-----------------|
|-----------------|-------------------|-----------------|
|-8---------------|---8------8-8------|-8---------------|
|-----------------|-----10-8-----10-8-|-----------------|
|-----------------|-------------------|-----------------|
|-----------------|-------------------|-----------------|
|
| E E E E E E E E   E E  E E E E  E E   E E E E E E E E
|-----------------|-------------------|-----------------|
|-8-8-8-8-8-8-8-8-|-8-8--8-8-8-8--8-8-|-8-8-8-8-8-8-8-8-|
|-8-8-8-8-8-8-8-8-|-8-8--8-8-8-8--8-8-|-8-8-8-8-8-8-8-8-|
|-8-8-8-8-8-8-8-8-|-8-8--8-8-8-8--8-8-|-8-8-8-8-8-8-8-8-|
|-6-6-6-6-6-6-6-6-|-6-6--6-6-6-6--6-6-|-6-6-6-6-6-6-6-6-|
|-----------------|-------------------|-----------------|
|
| E E Q   H         H        E E  E E   E E Q   H
|-----------------|-------------------|-----------------|
|-8---------------|----------8-8------|-8---------------|
|-----------------|--------------10-8-|-----------------|
|-----------------|-------------------|-----------------|
|-----------------|-------------------|-----------------|
|-----------------|-------------------|-----------------|


  Ab                                    Eb
  E E  E E E E  E E   E E Q   H         E E  E E E E  E E
|-------------------|-----------------|-------------------|
|-------------------|-----------------|-------------------|
|---8------8-8------|-8---------------|---8------8-8------|
|-----10-8-----10-8-|-----------------|-----10-8-----10-8-|
|-------------------|-----------------|-------------------|
|-------------------|-----------------|-------------------|
|
| E E  E E E E  E E   E E E E E E E E   E E  E E E E  E E
|-------------------|-----------------|-------------------|
|-------------------|-----------------|-8-8--8-8-8-8--8-8-|
|-5-5--5-5-5-5--5-5-|-5-5-5-5-5-5-5-5-|-8-8--8-8-8-8--8-8-|
|-6-6--6-6-6-6--6-6-|-6-6-6-6-6-6-6-6-|-8-8--8-8-8-8--8-8-|
|-6-6--6-6-6-6--6-6-|-6-6-6-6-6-6-6-6-|-6-6--6-6-6-6--6-6-|
|-4-4--4-4-4-4--4-4-|-4-4-4-4-4-4-4-4-|-------------------|
|
| H        E E  E E   E E Q   H         H        E E  E E
|-------------------|-----------------|-------------------|
|----------7-7--6---|-7---------------|----------8-8------|
|-----------------8-|-----------------|--------------10-8-|
|-------------------|-----------------|-------------------|
|-------------------|-----------------|-------------------|
|-------------------|-----------------|-------------------|


                    Bb
  E E Q   H         E  E E E  E  E E E    E E Q   H
|-----------------|--------------------|------------------|
|-----------------|--------------------|------------------|
|-8---------------|---10-7---10-10-7---|-10---------------|
|-----------------|--------8---------8-|------------------|
|-----------------|--------------------|------------------|
|-----------------|--------------------|------------------|
|
| E E E E E E E E   E  E E E  E  E E E    E E E E E E E E
|-----------------|--------------------|------------------|
|-8-8-8-8-8-8-8-8-|--------------------|------------------|
|-8-8-8-8-8-8-8-8-|-7--7-7-7--7--7-7-7-|--7-7-7-7-7-7-7-7-|
|-8-8-8-8-8-8-8-8-|-8--8-8-8--8--8-8-8-|--8-8-8-8-8-8-8-8-|
|-6-6-6-6-6-6-6-6-|-8--8-8-8--8--8-8-8-|--8-8-8-8-8-8-8-8-|
|-----------------|-6--6-6-6--6--6-6-6-|--6-6-6-6-6-6-6-6-|
|
| E E Q   H         H         E  E E E    E E Q   H
|-----------------|--------------------|------------------|
|-8---------------|-----------9--9-6---|--9---------------|
|-----------------|------------------7-|------------------|
|-----------------|--------------------|------------------|
|-----------------|--------------------|------------------|
|-----------------|--------------------|------------------|


                                    Chorus
  Eb                                 Eb
  E E  E E E E  E E   E E Q  H       E E q    Q   E E
|-------------------|-------------||------------------|
|-------------------|-------------||---------/9---8---|
|---8------8-8------|-8-----------||-----8----------8-|
|-----10-8-----10-8-|-------------||---8--------------|
|-------------------|-------------||------------------|
|-------------------|-------------||------------------|
|
| E E  E E E E  E E   E E Q  H       E E E E  E E E E
|-------------------|-------------||------------------|
|-8-8--8-8-8-8--8-8-|-8-----------||-8-8-8-8--8-8-8-8-|
|-8-8--8-8-8-8--8-8-|-8-----------||-8-8-8-8--8-8-8-8-|
|-8-8--8-8-8-8--8-8-|-8-----------||-8-8-8-8--8-8-8-8-|
|-6-6--6-6-6-6--6-6-|-6-----------||-6-6-6-6--6-6-6-6-|
|-------------------|-------------||------------------|
|
| H        E E  E E   E E Q  H       W
|-------------------|-------------||------------------|
|----------8-8------|-8-----------||------------------|
|--------------10-8-|-------------||------------------|
|-------------------|-------------||------------------|
|-------------------|-------------||------------------|
|-------------------|-------------||------------------|


  W                 E E q    Q   E E   W
|-----------------|------------------|-----------------|
|-----------------|---------/9---8---|-----------------|
|-----------------|-----8----------8-|-----------------|
|-----------------|---8--------------|-----------------|
|-----------------|------------------|-----------------|
|-----------------|------------------|-----------------|
|
| E E E E E E E E   E E E E  E E E E   E E E E E E E E
|-----------------|------------------|-----------------|
|-8-8-8-8-8-8-8-8-|-8-8-8-8--8-8-8-8-|-8-8-8-8-8-8-8-8-|
|-8-8-8-8-8-8-8-8-|-8-8-8-8--8-8-8-8-|-8-8-8-8-8-8-8-8-|
|-8-8-8-8-8-8-8-8-|-8-8-8-8--8-8-8-8-|-8-8-8-8-8-8-8-8-|
|-6-6-6-6-6-6-6-6-|-6-6-6-6--6-6-6-6-|-6-6-6-6-6-6-6-6-|
|-----------------|------------------|-----------------|


  Ab                                   Eb
  E E q    Q   E E   W                 E E q    Q   E E
|------------------|-----------------|------------------|
|---------/9---7---|-----------------|---------/9---8---|
|-----8----------8-|-----------------|-----8----------8-|
|---8--------------|-----------------|---8--------------|
|------------------|-----------------|------------------|
|------------------|-----------------|------------------|
|
| E E E E  E E E E   E E E E E E E E   E E E E  E E E E
|------------------|-----------------|------------------|
|------------------|-----------------|-8-8-8-8--8-8-8-8-|
|-5-5-5-5--5-5-5-5-|-5-5-5-5-5-5-5-5-|-8-8-8-8--8-8-8-8-|
|-6-6-6-6--6-6-6-6-|-6-6-6-6-6-6-6-6-|-8-8-8-8--8-8-8-8-|
|-6-6-6-6--6-6-6-6-|-6-6-6-6-6-6-6-6-|-6-6-6-6--6-6-6-6-|
|-4-4-4-4--4-4-4-4-|-4-4-4-4-4-4-4-4-|------------------|


                    Bb
  W                 E E q    Q   E E   W
|-----------------|------------------|-----------------|
|-----------------|---------/6---7---|-----------------|
|-----------------|-----8----------8-|-----------------|
|-----------------|---8--------------|-----------------|
|-----------------|------------------|-----------------|
|-----------------|------------------|-----------------|
|
| E E E E E E E E   E E E E  E E E E   E E E E E E E E
|-----------------|------------------|-----------------|
|-8-8-8-8-8-8-8-8-|------------------|-----------------|
|-8-8-8-8-8-8-8-8-|-7-7-7-7--7-7-7-7-|-7-7-7-7-7-7-7-7-|
|-8-8-8-8-8-8-8-8-|-8-8-8-8--8-8-8-8-|-8-8-8-8-8-8-8-8-|
|-6-6-6-6-6-6-6-6-|-8-8-8-8--8-8-8-8-|-8-8-8-8-8-8-8-8-|
|-----------------|-6-6-6-6--6-6-6-6-|-6-6-6-6-6-6-6-6-|


                                   Out-Chorus
  Eb                                Eb
  E E q    Q   E E   W              E E q    Q   E E
|------------------|-------------||------------------|
|---------/9---8---|-------------||---------/9---8---|
|-----8----------8-|-------------||-----8----------8-|
|---8--------------|-------------||---8--------------|
|------------------|-------------||------------------|
|------------------|-------------||------------------|
|
| E E E E  E E E E   E E Q  H       E E E E  E E E E
|------------------|-------------||------------------|
|-8-8-8-8--8-8-8-8-|-8-----------||-8-8-8-8--8-8-8-8-|
|-8-8-8-8--8-8-8-8-|-8-----------||-8-8-8-8--8-8-8-8-|
|-8-8-8-8--8-8-8-8-|-8-----------||-8-8-8-8--8-8-8-8-|
|-6-6-6-6--6-6-6-6-|-6-----------||-6-6-6-6--6-6-6-6-|
|------------------|-------------||------------------|


  W                 E E q    Q   E E   W
|-----------------|------------------|-----------------|
|-----------------|---------/9---8---|-----------------|
|-----------------|-----8----------8-|-----------------|
|-----------------|---8--------------|-----------------|
|-----------------|------------------|-----------------|
|-----------------|------------------|-----------------|
|
| E E E E E E E E   E E E E  E E E E   E E E E E E E E
|-----------------|------------------|-----------------|
|-8-8-8-8-8-8-8-8-|-8-8-8-8--8-8-8-8-|-8-8-8-8-8-8-8-8-|
|-8-8-8-8-8-8-8-8-|-8-8-8-8--8-8-8-8-|-8-8-8-8-8-8-8-8-|
|-8-8-8-8-8-8-8-8-|-8-8-8-8--8-8-8-8-|-8-8-8-8-8-8-8-8-|
|-6-6-6-6-6-6-6-6-|-6-6-6-6--6-6-6-6-|-6-6-6-6-6-6-6-6-|
|-----------------|------------------|-----------------|


  Ab                           F
                    2/4       4/4
  E E q    Q   E E   W          Q     E  E  H
|------------------|---------|-------------------------|
|---------/9---7---|---------|-------------------------|
|-----8----------8-|---------|-------------------------|
|---8--------------|---------|-------10-10-------------|
|------------------|---------|-------------------------|
|------------------|---------|-------------------------|
|
| PM------------------------------------------------|
| E E E E  E E E E   E E E E    E  E  E  E  E  E  E  E
|------------------|---------|-------------------------|
|------------------|---------|-10-10-10-10-10-10-10-10-|
|-5-5-5-5--5-5-5-5-|-5-5-5-5-|-10-10-10-10-10-10-10-10-|
|-6-6-6-6--6-6-6-6-|-6-6-6-6-|-10-10-10-10-10-10-10-10-|
|-6-6-6-6--6-6-6-6-|-6-6-6-6-|--8--8--8--8--8--8--8--8-|
|-4-4-4-4--4-4-4-4-|-4-4-4-4-|-------------------------|


  Bb                Eb6sus2
  Q   E E H          W               W
|-----------------|---------------|---------------*|
|-----------------|---------------|---------------*|
|-----7-7---------|---------------|---------------*|
|-----------------|---------------|---------------*|
|-----------------|---------------|---------------*|
|-----------------|---------------|---------------*|
|
| PM------------|
| E E E E E E E E    H     +H       +Q    Q  H
|-----------------|-11----(11)s===|=(x)\----------*|
|-----------------|-11----(11)s===|=(x)\----------*|
|-7-7-7-7-7-7-7-7-|-10----(10)s===|=(x)\----------*|
|-8-8-8-8-8-8-8-8-|-10----(10)s===|=(x)\----------*|
|-8-8-8-8-8-8-8-8-|---------------|---------------*|
|-6-6-6-6-6-6-6-6-|-11----(11)s===|=(x)\----------*|

            
Submit corrections


        See You Later Alligator lessons Hard to play? Try these video lessons and learn fast See You Later Alligator lessons
        
↑ Back to top | Tablatures and chords for acoustic guitar and electric guitar, ukulele, drums are parodies/interpretations of the original songs. You may use it for private study, scholarship, research or language learning purposes only