» » »

Bill Haley And The Comets - See You Later Alligator Tabs

Artists:  A B C D E F G H I J K L M N O P Q R S T U V W X Y Z # 

See You Later Alligator Tabs

(ver. 1) Click to play this song!
Bill Haley And The Comets
 Rating:
4/5 (4 votes)

 See You Later Alligator lessons Tabs too difficult? Try these video lessons and learn fast
 
                Mabye theese tabs works for the whole song, but what I know they are for the chorus.
But they are very simple and great for beginners to learn!

e---3---3---3---0--------------|
B-------------3---0---3---3----|
G------------------------------|   x2
D------------------------------|
A------------------------------|
E------------------------------|


e---6---6---6---3---3---0---3---3-|
B---------------------------------|
G---------------------------------|
D---------------------------------|
A---------------------------------|
E---------------------------------|


e---3---3---3---0--------------|
B-------------3---0---3---3----|
G------------------------------|   x2
D------------------------------|
A------------------------------|
E------------------------------|


e---0---3---3---0---3---3---|
B-------------3-------------|
G---------------------------|
D---------------------------|
A---------------------------|
E---------------------------|

And that's it! Enjoy!


Made by Jonathan
            
Submit corrections


        See You Later Alligator lessons Hard to play? Try these video lessons and learn fast See You Later Alligator lessons
        
↑ Back to top | Tablatures and chords for acoustic guitar and electric guitar, ukulele, drums are parodies/interpretations of the original songs. You may use it for private study, scholarship, research or language learning purposes only