Home » B » Bill Haley And The Comets »

Bill Haley And The Comets - See You Later Alligator Bass

Artists:  A B C D E F G H I J K L M N O P Q R S T U V W X Y Z # 

See You Later Alligator Bass

(ver. 1) Click to play this song!
Bill Haley And The Comets
Gtr I (E A D G) - 'Al Rex - Upright Bass'


 Intro                   1st & 2nd Verses
  Q=160(8=s8)
 4/4
  Gtr I
  W          W            Q  Q  Q  Q
|----------|----------||--------------|
|----------|----------||o-------8--x--|
|----------|----------||o-6--x--------|
|----------|----------||--------------|


  Q  Q  Q  Q    Q  Q  Q  Q    Q  Q  Q  Q
|-------------|-------------|-------------|
|-------8--x--|-------8--x--|-------------|
|-6--x--------|-6--x--------|-6--x--6--x--|
|-------------|-------------|-------------|


  Q  Q  Q  Q    Q  Q  Q  Q    Q  Q  Q  Q
|-------------|-------------|-------------|
|-------------|-------------|-------8--x--|
|-------6--x--|-------------|-6--x--------|
|-4--x--------|-4--x--4--x--|-------------|


  Q  Q  Q  Q    Q  Q  Q  Q    Q  Q  Q  Q
|-------------|-------------|-------------|
|-------8--x--|-------------|-------------|
|-6--x--------|-------8--x--|----------5--|
|-------------|-6--x--------|-6--x--8-----|


                              Chorus
  Q  Q  Q  Q    E E Q  H       Q  Q  Q  Q
|-------------|-------------||-------------|
|-------8--x--|-------------||-------8--x--|
|-6--x--------|-6-----------||-6--x--------|
|-------------|-------------||-------------|


  Q  Q  Q  Q    Q  Q  Q  Q    Q  Q  Q  Q
|-------------|-------------|-------------|
|-------------|-------8--x--|----------5--|
|-6--x--6--x--|-6--x--------|-6--x--8-----|
|-------------|-------------|-------------|


  Q  Q  Q  Q    Q  Q  Q  Q    Q  Q  Q  Q
|-------8--x--|-------------|-------------|
|-6--x--------|-6--x--6--x--|-------------|
|-------------|-------------|-6--x--6--x--|
|-------------|-------------|-------------|


  Q  Q  Q  Q    Q  Q  Q  Q    Q  Q  Q  Q
|-------------|-------------|-------------|
|-------------|-------------|-------------|
|-6--x--6--x--|-------8--x--|----------5--|
|-------------|-6--x--------|-6--x--8-----|


  1.                           2.
  Q  Q  Q  Q    E E Q  H        Q  Q  Q  Q
|-------------|--------------||-------------|
|-------8--x--|-------------o||-------8--x--|
|-6--x--------|-6-----------o||-6--x--------|
|-------------|--------------||-------------|


                Interlude
  Q  Q  Q  Q     Q  Q  Q  Q    Q  Q  Q  Q    Q  Q  Q  Q
|-------------||-------------|-------------|--------------|
|-------------||-------8--x--|-------8--x--|-------8--x---|
|-6--x--6--x--||-6--x--------|-6--x--------|-6--x---------|
|-------------||-------------|-------------|--------------|


  Q  Q  Q  Q    Q  Q  Q  Q    Q  E E Q  Q    Q  Q  Q  Q
|-------------|-------------|--------------|--------------|
|-------8--x--|-------------|--------------|----x--8--x---|
|-6--x--------|-------6--x--|--------------|-6------------|
|-------------|-4--x--------|-4----4-4--1--|--------------|


  Q  Q  Q  Q    Q  Q  Q  Q    Q  Q  Q  Q
|-------------|-------------|-------------|
|-------------|-------------|-------------|
|-6--x--6--x--|-------8--x--|-------8--x--|
|-------------|-6--x--------|-6--x--------|


                              3rd Verse
  Q  Q  Q  Q    E E Q  H       Q  Q  Q  Q
|-------------|-------------||-------------|
|-------8--x--|-------------||-------------|
|-6--x--------|-6-----------||-6--x--6--x--|
|-------------|-------------||-------------|


  Q  Q  Q  Q    Q  Q  Q  Q    Q  Q  Q  Q
|-------------|-------------|-------------|
|-------------|----x--8--x--|-------------|
|-6--x--6--x--|-6-----------|-6--x--6--x--|
|-------------|-------------|-------------|


  Q  Q  Q  Q    Q  Q  Q  Q    Q  Q  Q  Q
|-------------|-------------|-------------|
|-------------|-------------|-------------|
|-------6--x--|-------6--x--|-6--x--6--x--|
|-4--x--------|-4--x--------|-------------|


  Q  Q  Q  Q    Q  Q  Q  Q    Q  Q  Q  Q
|-------------|-------------|-------------|
|-------------|-------------|-------------|
|-6--x--6--x--|-------8--x--|-------8--x--|
|-------------|-6--x--------|-6--x--------|


                                4th Verse
  Q.   E Q.   E   E E Q  H       Q  Q  Q  Q
|---------------|-------------||-------------|
|--------8------|-------------||-------8--x--|
|-6-------------|-6-----------||-6--x--------|
|---------------|-------------||-------------|


  Q  Q  Q  Q    Q  Q  Q  Q    Q  Q  Q  Q
|-------------|-------------|-------------|
|----x--8--x--|----x--8--x--|-------------|
|-6-----------|-6-----------|-6--x--6--x--|
|-------------|-------------|-------------|


  Q  Q  Q  Q    Q  E E Q  Q    Q  Q  Q  Q
|-------------|--------------|-------------|
|-------------|--------------|-------8--x--|
|-------6--x--|--------------|-6--x--------|
|-4--x--------|-4----4-4--1--|-------------|


  Q  E E Q  Q    Q  Q  Q  Q    Q  Q  Q  Q
|--------------|-------------|-------------|
|--------------|-------------|-------------|
|-6----6-6-----|-------8--x--|-------------|
|-----------8--|-6--x--------|-6--x--6--x--|


                              Chorus
  Q  Q  Q  Q    E E Q  H       Q  Q  Q  Q
|-------------|-------------||-------------|
|----x--8--x--|-------------||-------8--x--|
|-6-----------|-6-----------||-6--x--------|
|-------------|-------------||-------------|


  Q  Q  Q  Q    Q  Q  Q  Q    Q  Q  Q  Q
|-------------|-------------|-------------|
|-------------|-------8--x--|----------5--|
|-6--x--6--x--|-6--x--------|-6--x--8-----|
|-------------|-------------|-------------|


  Q  Q  Q  Q    Q  Q  Q  Q    Q  Q  Q  Q
|-------8--x--|-------------|-------------|
|-6--x--------|-6--x--6--x--|-------8--x--|
|-------------|-------------|-6--x--------|
|-------------|-------------|-------------|


  Q  Q  Q  Q    Q  Q  Q  Q    Q  Q  Q  Q
|-------------|-------------|-------------|
|-------------|-------------|-------------|
|-6--x--6--x--|-------8--x--|-------8--x--|
|-------------|-6--x--------|-6--x--------|


                              Out-Chorus
  Q  Q  Q  Q    E E Q  H       Q  Q  Q  Q
|-------------|-------------||-------------|
|-------8--x--|-------------||-------------|
|-6--x--------|-6-----------||-6--x--6--x--|
|-------------|-------------||-------------|


  Q  Q  Q  Q    Q  Q  Q  Q    Q  Q  Q  Q    Q  Q  Q  Q
|-------------|-------------|-------------|--------------|
|-------------|-------8--x--|-------8--x--|--------------|
|-6--x--6--x--|-6--x--------|-6--x--------|--------------|
|-------------|-------------|-------------|-4--x--4--x---|


 2/4      4/4
  Q.   E   Q  Q  Q  Q    Q  Q  Q  Q    W          +E  E Q  H
|--------|-------------|-------------|----------|---------------*|
|--------|-------------|-------3--x--|-1--------|-(1)-----------*|
|--------|-------------|-1--x--------|----------|---------------*|
|-4------|-1--x--1--x--|-------------|----------|---------------*|

Tempo markers -  = BPM(8/16=s8/s16), where s8 = swing 8ths, s16 = swing 16ths
            
Submit corrections

↑ Back to top | Tablatures and chords for acoustic guitar and electric guitar, ukulele, drums are parodies/interpretations of the original songs. You may use it for private study, scholarship, research or language learning purposes only