Home » B » Ben Harper »

Ben Harper - Walk Away Tabs

Artists:  A B C D E F G H I J K L M N O P Q R S T U V W X Y Z # 

Walk Away Tabs

(ver. 1) Click to play this song!
Ben Harper
BEN HARPER – “WALK AWAY”

INTRO
e|-----------------------------------------------------------------
B|------3-3-----3-3-----3-3-------3-3-----3-3-----3-3-----3-3------
G|------0-0-----0-0-----0-0-------0-0-----0-0-----0-0-----0-0------
D|-----------------------------------------------------------------
A|-----------------------------------------------------------------
E|--3-3-----2-2-----0-0-----0h2-2-----3-3-----2-2-----0-0-----0h2--

VERSE
e|-------------------------------------
B|------3-3-----3-3-----3-3-------3-3--
G|------0-0-----0-0-----0-0-------0-0--
D|-------------------------------------
A|-------------------------------------
E|--3-3-----2-2-----0-0-----0h2-2------

CHORUS
e|-----------------------------------
B|------3-3-----3-3-----3-3-----3-3--
G|------0-0-----0-0-----0-0-----0-0--
D|-----------------------------------
A|--3-3-----2-2-----0-0--------------
E|--------------------------3-3------

END-CHORUS
e|-------------------------------------
B|------3-3-----3-3-----3-3-------3-3--
G|------0-0-----0-0-----0-0-------0-0--
D|-------------------------------------
A|--3-3-----2-2-----0-0----------------
E|--------------------------0h2-2------

BRIDGE
e|-----------------------------------
B|------3-3-----3-3-----3-3-----3-3--
G|------0-0-----0-0-----0-0-----0-0--
D|-----------------------------------
A|--0-0------------------------------
E|----------0-0-----3-3-----2-2------


(ORDER)
INTRO
VERSE (x4)
CHORUS (x2)
END-CHORUS
VERSE (x4)
CHORUS (x2)
END-CHORUS
BRIDGE (x4)
VERSE (x5)
CHORUS (x3)
END-CHORUS
VERSE (x4) =FADE OUT=







LYRICS

(INTRO)

Oh no, here comes that sun again
That means another day, without you my friend
And it hurts me to look into the mirror at myself
And it hurts even more to have to be with somebody else

(CHORUS)
And it's so hard to do
And so easy to say
But sometimes
Sometimes you just have to walk away
Walk away

With so many people to love in my life
Why do I worry about one
But you put the happy in my ness
You put the good times into my fun

(CHORUS)
And I head for the door

(BRIDGE)
We've tried the goodbye
So many days
We walk in the same direction
So that we could never stray
They say if you love somebody
Than you have got to set them free
But I would rather be locked to you
Than live in this pain and misery

They say time will make all this go away
But it's time that has taken my tomorrows
And turned them into yesterdays
And once again that rising sun is droppin' on down
And once again you my friend are nowhere to be found

(CHORUS)
And head for the door
You just walk away
Just walk on, walk on
Turn and head for the door
Just walk away... 

=FADE OUT=
            
Submit corrections

↑ Back to top | Tablatures and chords for acoustic guitar and electric guitar, ukulele, drums are parodies/interpretations of the original songs. You may use it for private study, scholarship, research or language learning purposes only