Home » B » Ben Harper »

Ben Harper - The Woman In You Tabs

Artists:  A B C D E F G H I J K L M N O P Q R S T U V W X Y Z # 

The Woman In You Tabs

(ver. 1) Click to play this song!
Ben Harper
The woman in you
Ben Harper

Tuning normal EADGBE

Intro 
   Bm7        A                             Em7
|-----------------------------------------------------------------------|
|-------3---------2h3-2h3p2-----------------------7---7-----------10--8-|
|-------2---------2----------2--------------7-----7---7h9--7------7-----|
|-------4---------2-------------0-----------7--9--------------9---------|
|--2----------0-----------------------/7--------------------------------|
|----------------------------------------0------------------------------|

Verse 

|-----------------------------------------------------------------------|
|-------3---------2h3-2h3p2-----------------------7---7-----------10--8-|
|-------2---------2----------2--------------7-----7---7h9--7------7-----|
|-------4---------2-------------0-----------7--9--------------9---------|
|-0h2-2-------0---------------------7-----------------------------------|
|----------------------------------------0------------------------------|

|-----------------------------------------------------------------------|
|-------3---------2h3-2h3p2-----------------------7---7-----------8---8-|
|-------2---------2----------2--------------7-----7---7h9--7------7-----|
|-------4---------2-------------0-----------7--9--------------9---7-----|
|-0h2-2-------0---------------------7-----------------------------------|
|----------------------------------------0------------------------------|

Chorus
Bm  E  G  A

    Bm       E               G             A 
The woman in you      is the worry    the worry in me
            
Submit corrections

↑ Back to top | Tablatures and chords for acoustic guitar and electric guitar, ukulele, drums are parodies/interpretations of the original songs. You may use it for private study, scholarship, research or language learning purposes only