Home » B » Ben Harper »

Ben Harper - Glory And Consequence Tabs

Artists:  A B C D E F G H I J K L M N O P Q R S T U V W X Y Z # 

Glory And Consequence Tabs

(ver. 1) Click to play this song!
Ben Harper
    F                      C			G
e---1----------------------3--------------------3--------------------3
B---1----------------------5--------------------3--------------------3
G---2-------0h2p0----------5--------0h2p0-------4--------0h2p0-------4
D---3--0--2-------3p2p0----5--0--2-------3p2p0--5--0--2-------3p2p0--5
A---3----------------------3--------------------5--------------------5
E---1-------------------------------------------3--------------------3


the verse riff goes like this
     C		     F	      G
e----3---------------1-------------------------------------
B----5---------------1-------------------------------------
G----5---------------2-------------------------------------
D----5---------------3--------5----------------------------
A----3---------------3--------5----------------------1--1--
E--------------------1--------3--1--3--1--3--1--3--1-------

Lyrics:
C          F         G    C       F            G
i'm more afraid of living than i am scared to die
C          F         G    C       F            G   
im more afraid of falling than i am of flying high

F       C          G    F           C          G
every moral has a story and every story has an end
F       C             G    F        C     G
every battle has its glory and its consequence
            
Submit corrections

↑ Back to top | Tablatures and chords for acoustic guitar and electric guitar, ukulele, drums are parodies/interpretations of the original songs. You may use it for private study, scholarship, research or language learning purposes only