Home » B » Ben Harper »

Ben Harper - Sexual Healing Bass

Artists:  A B C D E F G H I J K L M N O P Q R S T U V W X Y Z # 

Sexual Healing Bass

(ver. 1) Click to play this song!
Ben Harper
Comments, Questions Welcome.

tuning: standard (E-A-D-G)

Main Riff
G|---------------------------------------------------------------|
D|---------------------0-2-0-------------------------------------|
A|------0-0-----3--0-3-------3-----------------------------------|
E|--3-3-----1-1--------------------------------------------------|

Other Riff
G|-------0--------------------------------------------------------|
D|-0-2-3----------------------------------------------------------|
A|---------3--3-3-3-3-3-3-2---------------------------------------|
E|--------------------------0-0-0-0-0-0-0-1-1-1-1-1-1-------------|
            
Submit corrections

↑ Back to top | Tablatures and chords for acoustic guitar and electric guitar, ukulele, drums are parodies/interpretations of the original songs. You may use it for private study, scholarship, research or language learning purposes only