» » »

Beethoven - Ode To Joy Tabs

Artists:  A B C D E F G H I J K L M N O P Q R S T U V W X Y Z # 

Ode To Joy Tabs

(ver. 3) Click to play this song!
Beethoven
 Rating:
4/5 (4 votes)

 Ode To Joy lessons Tabs too difficult? Try these video lessons and learn fast
 
                Here you go. my attempt at this. any corrections to

0--0--1--3--3--1--0--------------0--0------
---------------------3--1--1--3--------3--3
-------------------------------------------
-------------------------------------------
-------------------------------------------
-------------------------------------------


0--0--1--3--3--1--0--------------0---------
---------------------3--1--1--3-----3--1--1
-------------------------------------------
-------------------------------------------
-------------------------------------------
-------------------------------------------


---0--------0--1--0--------0--1--0------------
3-----1--3-----------1--3-----------3--1--3---
---------------------------------------------0
----------------------------------------------
----------------------------------------------
----------------------------------------------


0--0--1--3--3--1--0--------------0---------
---------------------3--1--1--3-----3--1--1
-------------------------------------------
-------------------------------------------
-------------------------------------------
-------------------------------------------
            
Submit corrections


        Ode To Joy lessons Hard to play? Try these video lessons and learn fast Ode To Joy lessons
        
↑ Back to top | Tablatures and chords for acoustic guitar and electric guitar, ukulele, drums are parodies/interpretations of the original songs. You may use it for private study, scholarship, research or language learning purposes only