» » »

Beethoven - Fur Elise Bass

Artists:  A B C D E F G H I J K L M N O P Q R S T U V W X Y Z # 

Fur Elise Bass

(ver. 1) Click to play this song!
Beethoven
 Rating:
4/5 (4 votes)

 Fur Elise lessons Tabs too difficult? Try these video lessons and learn fast
 
                
Great song.. no one had it tabbed, and my friend had written it out for me, so I decided
I would post it for everyone else. Rather easy song. It's tabbed using deadnotes on the A and D
string for strumming, but if you pluck the two notes at the same time, it sounds fine.
I didn't space the timing correctly, but if you know the song, it's easy to figure out.

G|-9-8-9-8-9----7-----2-----2------2--4----1----1--4-5----2--------------------|
D|-----------9----10--X--2-------2----X--2---2-------X--2---2------------------|
A|--------------------0--------3------X--------------X-------------------------|
E|------------------------------------0--------------0-------------------------|


G|-9-8-9-8-9--------------10--9--7--0-4---9-7-5----2----7-5-4------------------|
D|---------X------10-------------5------2-----X--2---2------X---2-2------------|
A|---------X--10------10----------------------0-------------X------------------|
E|---------8------------------------------------------------0------------------|

G|-9--9---9-8-9-8-9-8-9-8-9-8-9---7------2-----2----2--4----1---5-4-2----------|
D|-X--X-------------------------9----10--X--2--X--2----X--2---2-----2----------|
A|-X--X----------------------------------0-----3-------X------------0----------|
E|-7--7------------------------------------------------0-----------------------|

Horray! It's done..
            
Submit corrections


        Fur Elise lessons Hard to play? Try these video lessons and learn fast Fur Elise lessons
        
↑ Back to top | Tablatures and chords for acoustic guitar and electric guitar, ukulele, drums are parodies/interpretations of the original songs. You may use it for private study, scholarship, research or language learning purposes only