» » »

Beethoven - Ode To Joy Tabs

Artists:  A B C D E F G H I J K L M N O P Q R S T U V W X Y Z # 

Ode To Joy Tabs

(ver. 2) Click to play this song!
Beethoven
 Rating:
4/5 (4 votes)

 Ode To Joy lessons Tabs too difficult? Try these video lessons and learn fast
 
                Ode to Joy                                    

                                                                       
Lead Guitar



                                                                            
D#||------------------|--------------------------|-------------------------|
A#||------------------|--------------------------|-------------------------|
F#||------------------|--6--6--7--9--9--7--6--4--|--2--2--4--6--6---4-4----|
C#||------------------|--6--6--7--9--9--7--6--4--|--2--2--4--6--6---4-4----|
G#||------------------|--4--4--5--7--7--5--4--2--|--0--0--2--4--4---2-2----|
D#||------------------|--------------------------|-------------------------|


                                                     
--------------------------|-------------------------|
--------------------------|-------------------------|
--6--6--7--9--9--7--6--4--|--2--2--4--6--4---2-2----|
--6--6--7--9--9--7--6--4--|--2--2--4--6--4---2-2----|
--4--4--5--7--7--5--4--2--|--0--0--2--4--2---0-0----|
--------------------------|-------------------------|


                                                       
---------------------------|--------------------------|
---------------------------|--------------------------|
--4--4--6--2--4--6-7-6--2--|--4--6-7-6--4--2--4-------|
--4--4--6--2--4--6-7-6--2--|--4--6-7-6--4--2--4--2----|
--2--2--4--0--2--4-5-4--0--|--2--4-5-4--2--0--2--2----|
---------------------------|---------------------0----|


                                                                        
--------------------------|-------------------------|------------------|
--------------------------|-------------------------|------------------|
--6--6--7--9--9--7--6--4--|--2--2--4--6--4---2-2----|------------------|
--6--6--7--9--9--7--6--4--|--2--2--4--6--4---2-2----|------------------|
--4--4--5--7--7--5--4--2--|--0--0--2--4--2---0-0----|------------------|
--------------------------|-------------------------|------------------|


                                                         
------------------|------------------|------------------|
------------------|------------------|------------------|
------------------|------------------|------------------|
------------------|------------------|------------------|
------------------|------------------|------------------|
------------------|------------------|------------------|


                                                                    
--12--12--13--15--15--13--12------|--------------12--12------------|
------------------------------15--|--13--13--15-----------15-15----|
----------------------------------|--------------------------------|
----------------------------------|--------------------------------|
----------------------------------|--------------------------------|
----------------------------------|--------------------------------|


                                                                    
--12--12--13--15--15--13--12------|--------------12----------------|
------------------------------15--|--13--13--15------15---13-13----|
----------------------------------|--------------------------------|
----------------------------------|--------------------------------|
----------------------------------|--------------------------------|
----------------------------------|--------------------------------|


                                                                        
----------12----------12h13h12------|------12h13h12--------------------|
--15--15------13--15------------13--|--15------------15--13--15--------|
------------------------------------|----------------------------12----|
------------------------------------|----------------------------------|
------------------------------------|----------------------------------|
------------------------------------|----------------------------------|


                                                                    
--12--12--13--15--15--13--12------|--------------12----------------|
------------------------------15--|--13--13--15------15---13-13----|
----------------------------------|--------------------------------|
----------------------------------|--------------------------------|
----------------------------------|--------------------------------|
----------------------------------|--------------------------------|


                                                               
--9--9--10--12--12--10--9------|--------------9--9------------|
---------------------------12--|--10--10--12---------12-12----|
-------------------------------|------------------------------|
-------------------------------|------------------------------|
-------------------------------|------------------------------|
-------------------------------|------------------------------|


                                                                
--9--9--10--12--12--10--9------|--------------9----------------|
---------------------------12--|--10--10--12-----12---10-10----|
-------------------------------|-------------------------------|
-------------------------------|-------------------------------|
-------------------------------|-------------------------------|
-------------------------------|-------------------------------|


                                                                  
----------9----------9h10h9------|------9h10h9-------------------|
--12--12-----10--12----------10--|--12----------12--10--12-------|
---------------------------------|--------------------------9----|
---------------------------------|-------------------------------|
---------------------------------|-------------------------------|
---------------------------------|-------------------------------|


                                                                
--9--9--10--12--12--10--9------|--------------9----------17----|
---------------------------12--|--10--10--12-----12---10-------|
-------------------------------|-------------------------------|
-------------------------------|-------------------------------|
-------------------------------|-------------------------------|
-------------------------------|-------------------------------|


                    
------------------||
------------------||
------------------||
------------------||
------------------||
------------------||
            
Submit corrections


        Ode To Joy lessons Hard to play? Try these video lessons and learn fast Ode To Joy lessons
        
↑ Back to top | Tablatures and chords for acoustic guitar and electric guitar, ukulele, drums are parodies/interpretations of the original songs. You may use it for private study, scholarship, research or language learning purposes only