» » »

Beethoven - Fur Elise Tabs

Artists:  A B C D E F G H I J K L M N O P Q R S T U V W X Y Z # 

Fur Elise Tabs

(ver. 2) Click to play this song!
Beethoven
 Rating:
4/5 (4 votes)

 Fur Elise lessons Tabs too difficult? Try these video lessons and learn fast
 
                Fur Elise      
this is the most amazing tab on this song                               
no one can stop it!
                                                                       Beethoven
Lead Guitar



                                                                          
D#||----------12--11--|--12--11--12--------------|-----------------------|
A#||------------------|--------------12--15--13--|--10~--------------10--|
F#||------------------|--------------------------|----------------9------|
C#||------------------|--------------------------|------------10---------|
G#||------------------|--------------------------|--------12-------------|
D#||------------------|--------------------------|-----------------------|


                                                                            
------------------------|---------------12--11--|--12--11--12--------------|
--12~---------------12--|--13~------------------|--------------12--15--13--|
----------------13------|------------9----------|--------------------------|
------------14----------|-----------------------|--------------------------|
--------11--------------|--------12-------------|--------------------------|
------------------------|-----------------------|--------------------------|


                                                                       
-----------------------|------------------------|-------------12--11--|
--10~--------------10--|--12~-----------13--12--|--10~----------------|
----------------9------|------------------------|----------9----------|
------------10---------|------------14----------|---------------------|
--------12-------------|--------11--------------|---------------------|
-----------------------|------------------------|---------------------|


                                                                            
--12--11--12--------------|-----------------------|------------------------|
--------------12--15--13--|--10~--------------10--|--12~---------------12--|
--------------------------|----------------9------|----------------13------|
--------------------------|------------10---------|------------14----------|
--------------------------|--------12-------------|--------11--------------|
--------------------------|-----------------------|------------------------|


                                                                           
---------------12--11--|--12--11--12--------------|-----------------------|
--13~------------------|--------------12--15--13--|--10~--------------10--|
------------9----------|--------------------------|----------------9------|
-----------------------|--------------------------|------------10---------|
--------12-------------|--------------------------|--------12-------------|
-----------------------|--------------------------|-----------------------|


                                                                       
------------------------|------------------10--|--12~---------13--12--|
--12~-----------13--12--|--10~-----12--13------|----------------------|
------------------------|----------------------|----------12----------|
------------14----------|----------------------|----------------------|
--------11--------------|----------------------|----------------------|
------------------------|----------------------|----------------------|


                                                                    
--10~---------12--10--|----------------------|--------------12-----|
----------------------|--13~---------15--13--|--12~----------------|
----------10----------|----------------------|--------9--9------9--|
----------------------|----------14----------|---------------------|
----------------------|----------------------|---------------------|
----------------------|----------------------|---------------------|


                                                      
--12--12--24t-11--12--11--|--12--11--12--11--12--11--|
--------------------------|--------------------------|
--------------------------|--------------------------|
--------------------------|--------------------------|
--------------------------|--------------------------|
--------------------------|--------------------------|


                                                                            
--12--11--12--------------|-----------------------|------------------------|
--------------12--15--13--|--10~--------------10--|--12~---------------12--|
--------------------------|----------------9------|----------------13------|
--------------------------|------------10---------|------------14----------|
--------------------------|--------12-------------|--------11--------------|
--------------------------|-----------------------|------------------------|


                                                                           
---------------12--11--|--12--11--12--------------|-----------------------|
--13~------------------|--------------12--15--13--|--10~--------------10--|
------------9----------|--------------------------|----------------9------|
-----------------------|--------------------------|------------10---------|
--------12-------------|--------------------------|--------12-------------|
-----------------------|--------------------------|-----------------------|


                                                                       
------------------------|------------------10--|--12~---------13--12--|
--12~-----------13--12--|--10~-----12--13------|----------------------|
------------------------|----------------------|----------12----------|
------------14----------|----------------------|----------------------|
--------11--------------|----------------------|----------------------|
------------------------|----------------------|----------------------|


                                                                    
--10~---------12--10--|----------------------|--------------12-----|
----------------------|--13~---------15--13--|--12~----------------|
----------10----------|----------------------|--------9--9------9--|
----------------------|----------14----------|---------------------|
----------------------|----------------------|---------------------|
----------------------|----------------------|---------------------|


                                                      
--12--12--24t-11--12--11--|--12--11--12--11--12--11--|
--------------------------|--------------------------|
--------------------------|--------------------------|
--------------------------|--------------------------|
--------------------------|--------------------------|
--------------------------|--------------------------|


                                                                            
--12--11--12--------------|-----------------------|------------------------|
--------------12--15--13--|--10~--------------10--|--12~---------------12--|
--------------------------|----------------9------|----------------13------|
--------------------------|------------10---------|------------14----------|
--------------------------|--------12-------------|--------11--------------|
--------------------------|-----------------------|------------------------|


                                                                           
---------------12--11--|--12--11--12--------------|-----------------------|
--13~------------------|--------------12--15--13--|--10~--------------10--|
------------9----------|--------------------------|----------------9------|
-----------------------|--------------------------|------------10---------|
--------12-------------|--------------------------|--------12-------------|
-----------------------|--------------------------|-----------------------|


                                                              
------------------------|--5~-----8--8--8--|--8--------------|
--12~-----------13--12--|---------5--6--5--|--6--------6---5-|
------------------------|------------------|-----------5-----|
------------14----------|------------------|-----------------|
--------11--------------|------------------|-----------------|
------------------------|------------------|-----------------|


                                                                 
--------------6---5-|--5--3--1-----------|----------------------|
--5-----3-----------|-----------5--3--1--|----------------------|
-----3-----3--------|--------------------|--3-----2-----3h2h0h3-|
--------------------|--------------------|--3-------------------|
--------------------|--------------------|-----3-----3----------|
--------------------|--------------------|----------------------|


                                                                  
--------------------|--------------------|-----------------------|
--1-----------3--4--|--5--------5--6-----|--1-----3h1h0h1-3------|
-----2-----2--------|--------5--------2--|---------------------4-|
--------------------|-----7--------------|-----2-------------3---|
--------3-----------|--------------------|-----------------------|
--------------------|--------------------|-----------------------|


                                                        
--------------------------|------8-7-------------------|
----8---8---8---8---8---8-|----8-----10-8--------8h6---|
--5---------------5---7---|--9------------10-9-7-----7-|
------5---7---9-----------|----------------------------|
--------------------------|----------------------------|
--------------------------|----------------------------|


                                                        
--------------------------|------8-7-------------------|
----8---8---8---8---8---8-|----8-----10-8--------8h6---|
--5---------------5---7---|--9------------10-9-7-----7-|
------5---7---9-----------|----------------------------|
--------------------------|----------------------------|
--------------------------|----------------------------|


                                                              
--------------------------|------------------|---------------|
--5-6-5-4-5---5-4-5---5-4-|--5---------5--4--|--5~-----------|
------------4-------4-----|---------4--------|---------------|
--------------------------|------------------|---------------|
--------------------------|------------------|---------------|
--------------------------|------------------|---------------|


                                                         
------------12--11--|--12~-----------|----------12--11--|
--------12----------|----------------|------------------|
--------------------|----------------|------------------|
--------------------|----------------|------------------|
--------------------|----------------|------------------|
--------------------|----------------|------------------|


                                                                            
--12--11--12--------------|-----------------------|------------------------|
--------------12--15--13--|--10~--------------10--|--12~---------------12--|
--------------------------|----------------9------|----------------13------|
--------------------------|------------10---------|------------14----------|
--------------------------|--------12-------------|--------11--------------|
--------------------------|-----------------------|------------------------|


                                                                           
---------------12--11--|--12--11--12--------------|-----------------------|
--13~------------------|--------------12--15--13--|--10~--------------10--|
------------9----------|--------------------------|----------------9------|
-----------------------|--------------------------|------------10---------|
--------12-------------|--------------------------|--------12-------------|
-----------------------|--------------------------|-----------------------|


                                                                       
------------------------|------------------10--|--12~---------13--12--|
--12~-----------13--12--|--10~-----12--13------|----------------------|
------------------------|----------------------|----------12----------|
------------14----------|----------------------|----------------------|
--------11--------------|----------------------|----------------------|
------------------------|----------------------|----------------------|


                                                                    
--10~---------12--10--|----------------------|--------------12-----|
----------------------|--13~---------15--13--|--12~----------------|
----------10----------|----------------------|--------9--9------9--|
----------------------|----------14----------|---------------------|
----------------------|----------------------|---------------------|
----------------------|----------------------|---------------------|


                                                      
--12--12--24t-11--12--11--|--12--11--12--11--12--11--|
--------------------------|--------------------------|
--------------------------|--------------------------|
--------------------------|--------------------------|
--------------------------|--------------------------|
--------------------------|--------------------------|


                                                                            
--12--11--12--------------|-----------------------|------------------------|
--------------12--15--13--|--10~--------------10--|--12~---------------12--|
--------------------------|----------------9------|----------------13------|
--------------------------|------------10---------|------------14----------|
--------------------------|--------12-------------|--------11--------------|
--------------------------|-----------------------|------------------------|


                                                                           
---------------12--11--|--12--11--12--------------|-----------------------|
--13~------------------|--------------12--15--13--|--10~--------------10--|
------------9----------|--------------------------|----------------9------|
-----------------------|--------------------------|------------10---------|
--------12-------------|--------------------------|--------12-------------|
-----------------------|--------------------------|-----------------------|


                                                                               
------------------------|----------------|--9------------|--10--------12--13--|
--12~-----------13--12--|--10------------|--8------------|--10--------14--15--|
------------------------|----------------|--9------------|--10----------------|
------------14----------|----------------|--8------------|--------------------|
--------11--------------|----------------|--0------------|--------------------|
------------------------|----------------|---------------|--------------------|


                                                                        
--13--------13----|--12------------|--10--------8--7--|--5--------5----|
--15--------15----|--13------------|--6---------5--3--|--7--------7----|
--13--------13----|--14------------|------------------|--5--------5----|
------------------|----------------|------------------|--7-------------|
------------------|----------------|------------------|--6-------------|
------------------|----------------|------------------|--5-------------|


                                                                    
--5----8----7----|--5------------|---------------|-----------0--1--|
--1----5----3----|--1------------|--2------------|--3--------2--3--|
-----------------|---------------|--0------------|--2--------------|
-----------------|---------------|--2------------|--3--------------|
-----------------|---------------|--0------------|--0--------------|
-----------------|---------------|---------------|-----------------|


                                                                    
--1--------1----|--1------------|-----------------|----------------|
--3--------3----|--3------------|--4--------3--1--|----------------|
----------------|---------------|--0--------x--x--|--3--------2----|
----------------|---------------|-----------3--1--|--0--------0----|
----------------|---------------|-----------------|-----------1----|
----------------|---------------|-----------------|----------------|


                                                                               
----------------|---------------|---------------|-----------------0-----------|
----------------|---------------|---------------|--------------1-----3--1--0--|
--1--------1----|--2------------|--1------------|--2--------2-----------------|
--0--------0----|---------------|---------------|--------2--------------------|
--2--------2----|---------------|---------------|-----3-----------------------|
----------------|---------------|---------------|-----------------------------|


                                                                           
-----------------8--12--10--8------|------------------20--24--22--20------|
-------------10----------------12--|--------------22------------------24--|
----------9------------------------|----------21--------------------------|
------10---------------------------|------22------------------------------|
--12-------------------------------|--24----------------------------------|
-----------------------------------|--------------------------------------|


                                                                              
--18--17--16--15/-14------------------|--------------------------------------|
----------------------18--17--16--15/-|--14----------------------------------|
--------------------------------------|------17--16--15--14/-13--------------|
--------------------------------------|--------------------------17--16--15--|
--------------------------------------|--------------------------------------|
--------------------------------------|--------------------------------------|


                                                                              
----------------|--------------|----------12--11--|--12--11--12--------------|
----------------|--------------|------------------|--------------12--15--13--|
----------------|--------------|------------------|--------------------------|
--14------------|--------------|------------------|--------------------------|
----------------|--------------|------------------|--------------------------|
----------------|--------------|------------------|--------------------------|


                                                                         
-----------------------|------------------------|---------------12--11--|
--10~--------------10--|--12~---------------12--|--13~------------------|
----------------9------|----------------13------|------------9----------|
------------10---------|------------14----------|-----------------------|
--------12-------------|--------11--------------|--------12-------------|
-----------------------|------------------------|-----------------------|


                                                                            
--12--11--12--------------|-----------------------|------------------------|
--------------12--15--13--|--10~--------------10--|--12~-----------13--12--|
--------------------------|----------------9------|------------------------|
--------------------------|------------10---------|------------14----------|
--------------------------|--------12-------------|--------11--------------|
--------------------------|-----------------------|------------------------|


                                                                     
------------------10--|--12~---------13--12--|--10~---------12--10--|
--10~-----12--13------|----------------------|----------------------|
----------------------|----------12----------|----------10----------|
----------------------|----------------------|----------------------|
----------------------|----------------------|----------------------|
----------------------|----------------------|----------------------|


                                                                        
----------------------|--------------12-----|--12--12--24t-11--12--11--|
--13~---------15--13--|--12~----------------|--------------------------|
----------------------|--------9--9------9--|--------------------------|
----------14----------|---------------------|--------------------------|
----------------------|---------------------|--------------------------|
----------------------|---------------------|--------------------------|


                                                                              
--12--11--12--11--12--11--|--12--11--12--------------|-----------------------|
--------------------------|--------------12--15--13--|--10~--------------10--|
--------------------------|--------------------------|----------------9------|
--------------------------|--------------------------|------------10---------|
--------------------------|--------------------------|--------12-------------|
--------------------------|--------------------------|-----------------------|


                                                                            
------------------------|---------------12--11--|--12--11--12--------------|
--12~---------------12--|--13~------------------|--------------12--15--13--|
----------------13------|------------9----------|--------------------------|
------------14----------|-----------------------|--------------------------|
--------11--------------|--------12-------------|--------------------------|
------------------------|-----------------------|--------------------------|


                                                                  
-----------------------|------------------------|----------------|
--10~--------------10--|--12~-----------13--12--|--10------------|
----------------9------|------------------------|----------------|
------------10---------|------------14----------|----------------|
--------12-------------|--------11--------------|----------------|
-----------------------|------------------------|----------------|


                                                                
--------------|------12-11-12-11-12----------|----------------||
--------------|---------------------12-15-13-|--10------------||
--------------|------------------------------|----------------||
--------------|------------------------------|----------------||
--------------|------------------------------|----------------||
--------------|------------------------------|----------------||
            
Submit corrections


        Fur Elise lessons Hard to play? Try these video lessons and learn fast Fur Elise lessons
        
↑ Back to top | Tablatures and chords for acoustic guitar and electric guitar, ukulele, drums are parodies/interpretations of the original songs. You may use it for private study, scholarship, research or language learning purposes only