Home » B » Beastie Boys »

Beastie Boys - She's Crafty Tabs

Artists:  A B C D E F G H I J K L M N O P Q R S T U V W X Y Z # 

She's Crafty Tabs

(ver. 2) Click to play this song!
Beastie Boys
(Intro)
----------------------------------------------------------|
----------------------------------------------------------|
------------22--------------------------------------------|
------------00------3h20----------------------------------|
----------------------------------------------------------|
----------------------------------------------------------|


----------------------------------------------------------|
----------------------------------------------------------|
----------------------------------------------------------|
---0------------------------------------------------------|
---0------------------------------------------------------|
---0--------------x////-----------------------------------|
            
Submit corrections

↑ Back to top | Tablatures and chords for acoustic guitar and electric guitar, ukulele, drums are parodies/interpretations of the original songs. You may use it for private study, scholarship, research or language learning purposes only