Home » B » Beastie Boys »

Beastie Boys - Sabrosa Tabs

Artists:  A B C D E F G H I J K L M N O P Q R S T U V W X Y Z # 

Sabrosa Tabs

(ver. 2) Click to play this song!
Beastie Boys
Beastie Boys::SABROSA


step 1.
Intro do a few times 
----------------------/---------------------/
---------------------/---------------------/
--------------------/---------------------/ 
--5-xxxxx--5-7-5---/----3-xxxxx--5-3-5---/
------------------/---------------------/
-----------------/---------------------/
step 2.
This is the transition you use after the intro and after the bass line going
into step 3.
---------------------/---
--------------------/----
-------------------/-----
------------------/------
--6---5----3-----/-------
----------------/--------

step 3.

------------------------/
-----------------------/
----------------------/
-5-5-5-5-5-5--8--5---/      then back to step 2 then 3 then 2...then bass line..
--------------------/
-------------------/

BASS does this while wah is making harmonic palm mute noises.

----------------------/
--------5------------/
----3^5-----3^5--1--/            
--5----------------/



I know it looks like what??? but put the ill communications or the in sounds
and order.


I hope to see more Beastie intrumentals, Live at P.J.'s, shake your rump,and
mullet head etc...tabs soon

good luck PEACE,EREZ(E-mOnEy!!!!
            
Submit corrections

↑ Back to top | Tablatures and chords for acoustic guitar and electric guitar, ukulele, drums are parodies/interpretations of the original songs. You may use it for private study, scholarship, research or language learning purposes only