» » »

Avicii - Hey Brother Bass

Artists:  A B C D E F G H I J K L M N O P Q R S T U V W X Y Z # 

Hey Brother Bass

(ver. 2) Click to play this song!
Avicii
 Rating:
4/5 (23 votes)

 Hey Brother lessons Tabs too difficult? Try these video lessons and learn fast
 
                Verse 1
   Hey Brother? 
F#|-------------------|---------|
C#|-------------------|---------|
G#|--18-measure-rest--|--Break--|
D#|-------------------|---------|

Verse 2
  Hey Brother? (follow Bass Drum)
F#|--------|--------|--------|--------|--------|--------|--------|
C#|--------|--------|--------|--------|--------|--------|--------|
G#|--------|--------|-----2-2|--------|--------|--------|--------|
D#|-4-4-4-4|-4-4-4-4|-0-0----|-2-2-4-4|-4-4-4-4|-4-4-4-4|-4-4-0-0|

   Believe in one?
F#|--------|--------|--------|--------|--------|--------|--------|
C#|--------|--------|--------|--------|--------|--------|--------|
G#|-2-2----|--------|--------|-2-2----|--------|--------|-2-2----|
D#|-----2-2|-4-4-4-4|-2-2-2-2|-----0-0|-2-2-2-2|-2-2-2-2|-----0-0|
 
  wouldn't do?
F#|--------|----------|
C#|--------|----------|
G#|--------|-------2-1|
D#|-4-4-4-4|-4--------|

Chorus
            What if I'm far? 
F#|--------|--------|--------|--------|--------|
C#|--------|--------|--------|--------|--------|
G#|--------|-----2-2|-2-2-2-2|-2-1----|--------|
D#|-4-4-4-4|-0-0----|--------|-----4-4|-4-4-0-0|

   Lose it all? 
F#|--------|--------|--------|--------|--------|--------|--------|--------|--------|
C#|--------|--------|--------|--------|--------|--------|--------|--------|--------|
G#|-2-2-2-2|-2-2-2-1|--------|-2-2----|--------|--------|-2-2----|--------|--------|
D#|--------|--------|-2-2-2-2|-----0-0|-2-2-2-2|-2-2-2-2|-----0-0|-4-4-4-4|-4------|

Instrumental Break
F#|---------------------|
C#|---------------------|
G#|--9-measures-of-rest-|
D#|---------------------|

F#|--------|--------|--------|--------|    |--------|-------|
C#|--------|--------|--------|--------|    |--------|-------|
G#|--------|--------|--------|-2-2-1-1| x4 |--------|-------|
D#|-4-4-4-4|-0-0-2-2|-4-4-4-4|--------|    |-4-4-4-4|-4-----|

Verse 3
  Hey Brother? 
F#|--------|--------|--------|--------|--------|--------|--------|
C#|--------|--------|--------|--------|--------|--------|--------|
G#|--------|--------|-----2-2|--------|--------|--------|--------|
D#|-4-4-4-4|-4-4-4-4|-0-0----|-2-2-4-4|-4-4-4-4|-4-4-4-4|-4-4-0-0|
  Believe in love? 
F#|--------|--------|--------|--------|--------|--------|--------|
C#|--------|--------|--------|--------|--------|--------|--------|
G#|-2-2----|--------|--------|-2-2----|--------|--------|-2-2----|
D#|-----2-2|-4-4-4-4|-2-2-2-2|-----0-0|-2-2-2-2|-2-2-2-2|-----0-0|
   wouldn't do? 
F#|--------|----------|
C#|--------|----------|
G#|--------|-------2-1|
D#|-4-4-4-4|-4--------|

Chorus
            What if I'm far? 
F#|--------|--------|--------|--------|--------|
C#|--------|--------|--------|--------|--------|
G#|--------|-----2-2|-2-2-2-2|-2-1----|--------|
D#|-4-4-4-4|-0-0----|--------|-----4-4|-4-4-0-0|

lose it all? 
F#|--------|--------|--------|--------|--------|--------|--------|--------|--------|
C#|--------|--------|--------|--------|--------|--------|--------|--------|--------|
G#|-2-2-2-2|-2-2-2-1|--------|-2-2----|--------|--------|-2-2----|--------|--------|
D#|--------|--------|-2-2-2-2|-----0-0|-2-2-2-2|-2-2-2-2|-----0-0|-4-4-4-4|-4------|

Instrumental Break
F#|---------------------|
C#|---------------------|
G#|--9-measures-of-rest-|
D#|---------------------|

F#|--------|--------|--------|--------|    |--------|
C#|--------|--------|--------|--------|    |--------|
G#|--------|--------|--------|-2-2-1-1| x4 |--------|
D#|-4-4-4-4|-0-0-2-2|-4-4-4-4|--------|    |-4------|            
Submit corrections


        Hey Brother lessons Hard to play? Try these video lessons and learn fast Hey Brother lessons
        
↑ Back to top | Tablatures and chords for acoustic guitar and electric guitar, ukulele, drums are parodies/interpretations of the original songs. You may use it for private study, scholarship, research or language learning purposes only