» » »

Avicii - Hey Brother Bass

Artists:  A B C D E F G H I J K L M N O P Q R S T U V W X Y Z # 

Hey Brother Bass

(ver. 1) Click to play this song!
Avicii
 Rating:
4/5 (4 votes)

 Hey Brother lessons Tabs too difficult? Try these video lessons and learn fast
 
                F#|-------|-------|-------|-------|-------|-------|-------|-------|-------|
C#|-------|-------|-------|-------|-------|-------|-------|-------|-------|
G#|-------|-------|-------|-------|-------|-------|-------|-------|-------|
D#|-------|-------|-------|-------|-------|-------|-------|-------|-------|


-------|-------|-------|-------|-------|-------|-------|-------|-------|
-------|-------|-------|-------|-------|-------|-------|-------|-------|
-------|-------|-------|-------|-------|-------|-------|-------|-------|
-------|-------|-------|-------|-------|-------|-------|-------|-------|


----------------------------|----------------------------|
----------------------------|----------------------------|
----------------------------|----------------------------|
--4-----4-----4-----4-------|--4-----4-----4-----4-------|


----------------------------|----------------------------|
----------------------------|----------------------------|
--------------2-----2-------|----------------------------|
--0-----0-------------------|--2-----2-----4-----4-------|


----------------------------|----------------------------|
----------------------------|----------------------------|
----------------------------|----------------------------|
--4-----4-----4-----4-------|--4-----4-----4-----4-------|


----------------------------|----------------------------|
----------------------------|----------------------------|
----------------------------|--2-----2-------------------|
--4-----4-----0-----0-------|--------------2-----2-------|


----------------------------|----------------------------|
----------------------------|----------------------------|
----------------------------|----------------------------|
--4-----4-----4-----4-------|--2-----2-----2-----2-------|


----------------------------|----------------------------|
----------------------------|----------------------------|
--2-----2-------------------|----------------------------|
--------------0-----0-------|--2-----2-----2-----2-------|


----------------------------|----------------------------|
----------------------------|----------------------------|
----------------------------|--2-----2-------------------|
--2-----2-----2-----2-------|--------------0-----0-------|


----------------------------|----------------|----------------------------|
----------------------------|----------------|----------------------------|
----------------------------|--------2--1----|----------------------------|
--4-----4-----4-----4-------|--4-------------|--4-----4-----4-----4-------|


----------------------------|----------------------------|
----------------------------|----------------------------|
--------------2-----2-------|--2-----2-----2-----2-------|
--0-----0-------------------|----------------------------|


----------------------------|----------------------------|
----------------------------|----------------------------|
--2-----1-------------------|----------------------------|
--------------4-----4-------|--4-----4-----0-----0-------|


----------------------------|----------------------------|
----------------------------|----------------------------|
--2-----2-----2-----2-------|--2-----2-----2-----1-------|
----------------------------|----------------------------|


----------------------------|----------------------------|
----------------------------|----------------------------|
----------------------------|--2-----2-------------------|
--2-----2-----2-----2-------|--------------0-----0-------|


----------------------------|----------------------------|
----------------------------|----------------------------|
----------------------------|----------------------------|
--2-----2-----2-----2-------|--2-----2-----2-----2-------|


----------------------------|----------------------------|-------|-------|
----------------------------|----------------------------|-------|-------|
--2-----2-------------------|----------------------------|-------|-------|
--------------0-----0-------|--4-----4-----4-----4-------|-------|-------|


-------|-------|-------|-------|-------|-------|-------|
-------|-------|-------|-------|-------|-------|-------|
-------|-------|-------|-------|-------|-------|-------|
-------|-------|-------|-------|-------|-------|-------|


----------------------------|----------------------------|
----------------------------|----------------------------|
----------------------------|----------------------------|
--4-----4-----4-----4-------|--0-----0-----2-----2-------|


----------------------------|----------------------------|
----------------------------|----------------------------|
----------------------------|--2-----2-----1-----1-------|
--4-----4-----4-----4-------|----------------------------|


----------------------------|----------------------------|
----------------------------|----------------------------|
----------------------------|----------------------------|
--4-----4-----4-----4-------|--0-----0-----2-----2-------|


----------------------------|----------------------------|
----------------------------|----------------------------|
----------------------------|--2-----2-----1-----1-------|
--4-----4-----4-----4-------|----------------------------|


----------------------------|----------------------------|
----------------------------|----------------------------|
----------------------------|----------------------------|
--4-----4-----4-----4-------|--0-----0-----2-----2-------|


----------------------------|----------------------------|
----------------------------|----------------------------|
----------------------------|--2-----2-----1-----1-------|
--4-----4-----4-----4-------|----------------------------|


----------------------------|----------------------------|
----------------------------|----------------------------|
----------------------------|----------------------------|
--4-----4-----4-----4-------|--0-----0-----2-----2-------|


----------------------------|----------------------------|
----------------------------|----------------------------|
----------------------------|--2-----2-----1-----1-------|
--4-----4-----4-----4-------|----------------------------|


----------------------------|-------|----------------------------|
----------------------------|-------|----------------------------|
----------------------------|-------|----------------------------|
--4-----4-----4-----4-------|--4----|--4-----4-----6-----4-------|


----------------------------|----------------------------|
----------------------------|----------------------------|
----------------------------|--------------2-----2-------|
--4-----4-----4-----4-------|--0-----0-------------------|


----------------------------|----------------------------|
----------------------------|----------------------------|
----------------------------|----------------------------|
--2-----2-----4-----4-------|--4-----4-----4-----4-------|


----------------------------|----------------------------|
----------------------------|----------------------------|
----------------------------|----------------------------|
--4-----4-----4-----4-------|--4-----4-----0-----0-------|


----------------------------|----------------------------|
----------------------------|----------------------------|
--2-----2-------------------|----------------------------|
--------------2-----2-------|--4-----4-----4-----4-------|


----------------------------|----------------------------|
----------------------------|----------------------------|
----------------------------|--2-----2-------------------|
--2-----2-----2-----2-------|--------------0-----0-------|


----------------------------|----------------------------|
----------------------------|----------------------------|
----------------------------|----------------------------|
--2-----2-----2-----2-------|--2-----2-----2-----2-------|


----------------------------|----------------------------|----------------|
----------------------------|----------------------------|----------------|
--2-----2-------------------|----------------------------|--------2--1----|
--------------0-----0-------|--4-----4-----4-----4-------|--4-------------|


----------------------------|----------------------------|
----------------------------|----------------------------|
----------------------------|--------------2-----2-------|
--4-----4-----4-----4-------|--0-----0-------------------|


----------------------------|----------------------------|
----------------------------|----------------------------|
--2-----2-----2-----2-------|--2-----1-------------------|
----------------------------|--------------4-----4-------|


----------------------------|----------------------------|
----------------------------|----------------------------|
----------------------------|--2-----2-----2-----2-------|
--4-----4-----0-----0-------|----------------------------|


----------------------------|----------------------------|
----------------------------|----------------------------|
--2-----2-----2-----1-------|----------------------------|
----------------------------|--2-----2-----2-----2-------|


----------------------------|----------------------------|
----------------------------|----------------------------|
--2-----2-------------------|----------------------------|
--------------0-----0-------|--2-----2-----2-----2-------|


----------------------------|----------------------------|
----------------------------|----------------------------|
----------------------------|--2-----2-------------------|
--2-----2-----2-----2-------|--------------0-----0-------|


----------------------------|-------|-------|-------|-------|-------|-------|
----------------------------|-------|-------|-------|-------|-------|-------|
----------------------------|-------|-------|-------|-------|-------|-------|
--4-----4-----4-----4-------|-------|-------|-------|-------|-------|-------|


-------|-------|-------|----------------------------|
-------|-------|-------|----------------------------|
-------|-------|-------|----------------------------|
-------|-------|-------|--4-----4-----4-----4-------|


----------------------------|----------------------------|
----------------------------|----------------------------|
----------------------------|----------------------------|
--0-----0-----2-----2-------|--4-----4-----4-----4-------|


----------------------------|----------------------------|
----------------------------|----------------------------|
--2-----2-----1-----1-------|----------------------------|
----------------------------|--4-----4-----4-----4-------|


----------------------------|----------------------------|
----------------------------|----------------------------|
----------------------------|----------------------------|
--0-----0-----2-----2-------|--4-----4-----4-----4-------|


----------------------------|----------------------------|
----------------------------|----------------------------|
--2-----2-----1-----1-------|----------------------------|
----------------------------|--4-----4-----4-----4-------|


----------------------------|----------------------------|
----------------------------|----------------------------|
----------------------------|----------------------------|
--0-----0-----2-----2-------|--4-----4-----4-----4-------|


----------------------------|----------------------------|
----------------------------|----------------------------|
--2-----2-----1-----1-------|----------------------------|
----------------------------|--4-----4-----4-----4-------|


----------------------------|----------------------------|
----------------------------|----------------------------|
----------------------------|----------------------------|
--0-----0-----2-----2-------|--4-----4-----4-----4-------|


----------------------------|----------------------------|-------|-------|
----------------------------|----------------------------|-------|-------|
--2-----2-----1-----1-------|----------------------------|-------|-------|
----------------------------|--4-----4-----4-----4-------|--4----|--4----|


-------||
-------||
-------||
--4----||
            
Submit corrections


        Hey Brother lessons Hard to play? Try these video lessons and learn fast Hey Brother lessons
        
↑ Back to top | Tablatures and chords for acoustic guitar and electric guitar, ukulele, drums are parodies/interpretations of the original songs. You may use it for private study, scholarship, research or language learning purposes only