» » »

Avicii - The Nights Tabs

Artists:  A B C D E F G H I J K L M N O P Q R S T U V W X Y Z # 

The Nights Tabs

(ver. 1) Click to play this song!
Avicii
 Rating:
4/5 (4 votes)

 The Nights  lessons Tabs too difficult? Try these video lessons and learn fast
 
                e------------------------------------------------------------------------|
b------------------------------------------------------------------------|
g--2----0-2-4-2-0--------------------------------0-----------------------|
d----------------------2--2--2---0---0----0-h-2--------------------------|
a------------------------------3---3----3--------------------------------|
e------------------------------------------------------------------------|

e----------------------------------------------------------------------------|
b----------------------------------------------------------------------------|
g----0--2-2-0-2-4-2-0---0----0-2---------------------5-5-5---------5-5-5-----|
d---2--------------------0-2------2-----------5-h-7----------5-h-7-----------|
a-3--------------------------------------------------------------------------|
e----------------------------------------------------------------------------|

e--------------------------------------------------------------------------|
b-------------------------------------------------------------------5------|
g---------------5-5-5---------5-5-5------------5-5-5----------5-5-7--------|
d-------5-h-7----------5-h-7-----------5-h-7-----------5-h-7---------------|
a--------------------------------------------------------------------------|
e--------------------------------------------------------------------------|            
Submit corrections


        The Nights  lessons Hard to play? Try these video lessons and learn fast The Nights  lessons
        
↑ Back to top | Tablatures and chords for acoustic guitar and electric guitar, ukulele, drums are parodies/interpretations of the original songs. You may use it for private study, scholarship, research or language learning purposes only