» » »

Avicii - Hey Brother Chords

Artists:  A B C D E F G H I J K L M N O P Q R S T U V W X Y Z # 

Hey Brother Chords

(ver. 1) Click to play this song!
Avicii
 Rating:
4.3/5 (13 votes)

 Hey Brother lessons Tabs too difficult? Try these video lessons and learn fast
 
                Verse (picking)
eb|-----------------|-----------------|-------------------------|-----------------|
Bb|-----------------|-----------------|-------------------------|-----------------|
Gb|-----------------|-----------------|-----------4---4---------|-----------------|
Db|---6---6---6---6-|---6---6---6---6-|---2---2-----------4---4-|---6---6---6---6-| x2
Ab|-----------------|-----------------|---------2---2-----------|-----------------|
Eb|-4---4---4---4---|-4---4---4---4---|-0---0-----------2---2---|-4---4---4---4---|
    1 + 2 + 3 + 4 +   1 + 2 + 3 + 4 +   1 e + a 2 e + a 3 e + a   1 + 2 + 3 + 4 +

Chorus (picking)
eb|-----------------|-----------------|-----------------|
Bb|-----------------|-----------------|-----------------|
Gb|-----------------|---4---4---------|-----------------|
Db|---4---4---4---4-|-----------2---2-|---4---4---4---4-|
Ab|-----------------|-2---2-----------|-----------------|
Eb|-2---2---2---2---|---------0---0---|-2---2---2---2---|
    1 + 2 + 3 + 4 +   1 + 2 + 3 + 4 +   1 + 2 + 3 + 4 +

eb|-----------------|-----------------|-----------------|-----------------|
Bb|-----------------|-----------------|-----------------|-----------------|
Gb|-----------------|---4---4---------|-----------------|-----------------|
Db|---4---4---4---4-|-----------2---2-|---6---6---6---6-|-----------------|
Ab|-----------------|-2---2-----------|-----------------|-----------------|
Eb|-2---2---2---2---|---------0---0---|-4---4---4---4---|-4---------------|
    1 + 2 + 3 + 4 +   1 + 2 + 3 + 4 +   1 + 2 + 3 + 4 +   1 + 2 + 3 + 4 +

Transition into pre-chorus (ah-ah-ah, change the last two beats of the chorus)
eb|-----|-------------|
Bb|-----|-------------|
Gb|-----|-------------|
Db|-----|-------------|
Ab|-----|-------------|
Eb|-7-6-|-4-----------|
    3 4   1 + 2 + 3 +


Reminder: use //capo 3// on chords below in standard EADGBe tuning!

ORDER: I V1 C V2 C PC C INT V3 C PC C O


[INTRO]
Em |   |


[VERSE 1]
                        1  +    2    +  3 +|1          2 3 4
Em  Em                  C       G       D   Em
Hey brother, there's an endless road to rediscover.
                     1 +     2    +    3     + |1      2 3 4
Em                   C       G         D        Em
Hey sister, know the water's sweet but blood is thicker.


[CHORUS]
D              G         C       D                        
Oh, if the the sky comes falling down, 
    D            G               C                Em | Em (hold) |
for you, there's nothing in this world I wouldn't do.


[VERSE 2]
                    1     + 2     +  3   + | 1       2 3 4
Em  Em              C       G        D       Em
Hey brother, do you still believe in one a - nother?
                    1     + 2     +  3   + | 1       2 3 4
Em  Em              C       G        D       Em
Hey sister, do you  still believe in love I  wonder?


[CHORUS]
D              G         C       D                        
Oh, if the the sky comes falling down, 
    D            G               C                Em | Em (hold) |
for you, there's nothing in this world I wouldn't do.


[PRE-CHORUS]
         1 +2     +      3   +   |1    2 3 4
         Em              C        G
  (ah-ah-ah) What if I'm far from home?
      G               G         Bm/F#
   Oh brother, I will hear your call!
1+2     +    3   +  |1   2 3 4
Em           C       G
   What if I lose it all?
      G
   Oh sister, I will help you out!


[CHORUS]
D              G         C       D                        
Oh, if the the sky comes falling down, 
    D            G               C                Em | Em (hold) |
for you, there's nothing in this world I wouldn't do.


[INTERLUDE]
(buildup)
Em | C D | Em | G Bm/F#      |
Em | C D | Em | G Bm/F# n.c. |

(beat drop)
Em | C D | Em | G Bm/F# |
Em | C D | Em | G Bm/F# |

(second beat drop)
Em | C D | Em | G Bm/F# |
Em | C D | Em | G Bm/F# |

Em | Em (hold) |


[VERSE 3] (combo of V1 and V2)
                        1  2    3    4  5 6|1      2 3 4
Em  Em                  C       G       D   Em
Hey brother, there's an endless road to rediscover.
                    1     2 3     4  5    6|1      2 3 4
Em  Em              C       G        D      Em
Hey sister, do you  still believe in love I wonder?


[CHORUS]
D              G         C       D                        
Oh, if the the sky comes falling down, 
    D            G               C                Em | Em (hold) |
for you, there's nothing in this world I wouldn't do.


[PRE-CHORUS]
         1 +2     +      3   +   |1    2 3 4
         Em              C        G
  (ah-ah-ah) What if I'm far from home?
      G               G         Bm/F#
   Oh brother, I will hear your call!
1+2     +    3   +  |1   2 3 4
Em           C       G
   What if I lose it all?
      G
   Oh sister, I will help you out!


[CHORUS]
D              G         C       D                        
Oh, if the the sky comes falling down, 
    D            G               C                Em | Em (hold) |
for you, there's nothing in this world I wouldn't do.


[OUTRO]
(buildup)
Em | C D | Em | G Bm/F#      |
Em | C D | Em | G Bm/F# n.c. |

(beat drop)
Em | C D | Em | G Bm/F# |
Em | C D | Em | G Bm/F# |

(second beat drop)
Em | C D | Em | G Bm/F# |
Em | C D | Em | G Bm/F# |

Em            
Submit corrections


        Hey Brother lessons Hard to play? Try these video lessons and learn fast Hey Brother lessons
        
↑ Back to top | Tablatures and chords for acoustic guitar and electric guitar, ukulele, drums are parodies/interpretations of the original songs. You may use it for private study, scholarship, research or language learning purposes only