Home » A » Atmosphere »

Atmosphere - Trying To Find A Balance Bass

Artists:  A B C D E F G H I J K L M N O P Q R S T U V W X Y Z # 

Trying To Find A Balance Bass

(ver. 2) Click to play this song!
Atmosphere
Atmosphere
"Trying to Find a Balance"
Seven's Travels

Intro
G---------12-14-15-14-12---------------|
D------12----------------12------------|
A--10------------------------13--------|
E--------------------------------8---8-|

Use a pick for this part

Verse
G---------------------|
D-------------------3-|
A---5----------3-5----|
E------3----5---------|

At 3:31 play the intro again

G---------12-14-15-14-12--------------|
D------12----------------12-----------|
A--10-----------------------13--------|
E-------------------------------8---8-|

Then play the verse again

G----------------------|
D--------------------3-|
A---5----------3-5-----|
E------3----5----------|
            
Submit corrections

↑ Back to top | Tablatures and chords for acoustic guitar and electric guitar, ukulele, drums are parodies/interpretations of the original songs. You may use it for private study, scholarship, research or language learning purposes only