Home » A » Atmosphere »

Atmosphere - Trying To Find A Balance Bass

Artists:  A B C D E F G H I J K L M N O P Q R S T U V W X Y Z # 

Trying To Find A Balance Bass

(ver. 1) Click to play this song!
Atmosphere
standard tuning
i couldnt find a bass tab for this anywhere, so i decided to do it myself.....

this is the intro and they do this a little bit in the end too
g|------------12--14--14h15--14--12-----------------------------------|
d|--------12------------------------------12--------------------------|
a|--10------------------------------------------8~----8~-----8~-------|
e|--------------------------------------------------------------------|

main part
g|--------------------------------|
d|--0~-----------------------3----|    repeat however many times
a|--------------0~---3---5--------|
e|--------3~----------------------|
            
Submit corrections

↑ Back to top | Tablatures and chords for acoustic guitar and electric guitar, ukulele, drums are parodies/interpretations of the original songs. You may use it for private study, scholarship, research or language learning purposes only