Home » A » Atmosphere »

Atmosphere - Guarantees Tabs

Artists:  A B C D E F G H I J K L M N O P Q R S T U V W X Y Z # 

Guarantees Tabs

(ver. 1) Click to play this song!
Atmosphere
 Rating:
4/5 (5 votes)
                -------------------------------------------------------------------------------
-------------------------------------------------------------------------------

Tuning: Drop D

most of the song is just the intro riff, except some of the fiddling parts are missing
you mute the strings with your hands when you strum. Doesn't take much to get an ear for
an if you don't have the ear, don't worry, i'll probably get around to mapping the rest 
the details later.

e|--------------------------------------------------------|
B|-8------7h8--7--1--1h3-1--1-----------------------------|
G|-9------7h9--7--2--2----2--2----------------------------|
D|-9------7h9--7--2--2------------------------------------|
A|-7--7-7-7----7--0--0------------------------------------|
D|--------------------------------------------------------|


Hears the break down, this was a little tricky for me to figure out until I found out it
in drop D.


e|-----x-----x---------------x-----x----------------------|
B|-----x-----x---------------x-----x----------------------|
G|-----x-----x---------------x-----x----------------------|
D|-----x-----x---------------x-----x-----0-2--------------|
A|-0h2-x-0h2-x-0h2-5-2---0h2-x-0h2-x-0h2------------------|
D|-0h2-x-0h2-x-0h2-5-2---0h2-x-0h2-x----------------------|

after this last bit you go back to the main riff

e|------x-----x----------------x-------x------------------|
B|------x-----x----------------x-------x------------------|
G|------x-----x----------------x-------x------------------|
D|--5h7-x-5h7-x-5h7-10-7-5h6h7-x-0h1h2-x------------------|
A|------x-----x----------------x-------x-0h1h2--s/5-5-7---|
E|------x-----x----------------x-------x------------------|

| /  slide up
| \  slide down
| h  hammer-on
| p  pull-off
| ~  vibrato
| +  harmonic
| x  Mute note
===============================================================================
            
Submit corrections

↑ Back to top | Tablatures and chords for acoustic guitar and electric guitar, ukulele, drums are parodies/interpretations of the original songs. You may use it for private study, scholarship, research or language learning purposes only