Home » A » Atmosphere »

Atmosphere - Smart Went Crazy Bass

Artists:  A B C D E F G H I J K L M N O P Q R S T U V W X Y Z # 

Smart Went Crazy Bass

(ver. 1) Click to play this song!
Atmosphere
 Rating:
4.2/5 (5 votes)
                

TUNING: Standard

Holy cr*p. No wonder the bassist doesn't play this live.

INTRO:
G|---------------------------| |----------|    |--------------|    |-----------|
D|---5--5-5--5-8-----8-8-----| |-----8----|    |------12------|    |-----8-----|
A|-----5-5--5-5-8---8--------| |----8-8---| 4x |----12--12----| 4x |----8-8----| 4x
E|---------------6-------6---| |---6------|    |---10---------|    |---6-------|


VERSE:
G|-------------------------------------------------|
D|-------5-----------5-5-5---5-7-8---5-3-----------|
A|---5-7---7-5---5-7-------5-------------5---------|
D|-------------------------------------------------|

G|---------------------------5-5-5-5-----------------|
D|---5-7-8-8-8---8-9-10-5---5-----5-5--------5-------|
A|-------------8----------6-------------------5------|
D|-------------------------------------3----3--6-3---|

In some of the later verses, the first two notes aren't played. Regardless, cool riff.
            
Submit corrections

↑ Back to top | Tablatures and chords for acoustic guitar and electric guitar, ukulele, drums are parodies/interpretations of the original songs. You may use it for private study, scholarship, research or language learning purposes only