Home » A » Ataris »

Ataris - In This Diary Tabs

Artists:  A B C D E F G H I J K L M N O P Q R S T U V W X Y Z # 

In This Diary Tabs

(ver. 3) Click to play this song!
Ataris
Tuning - half a step down (Eb, Ab, Db, Gb, Bb, Eb)

Intro
Guitar 1 (clean)
e---------------------------------
B---------------------------------
G-6-x16-9-x7-6-x9-7-x7-6-x9-7-x16-
D-7-----9----7----7----7----7-----
A-7-----7----7----5----5----5-----
E-5-------------------------------
PM...........................

Verse 1
Guitar 1 (distortion)
e-------------------------------------------------------------------
B-------------------------------------------------------------------
G-------------------------------7-x16-------------------------7-x32-
D-4-x16-----2-x16-----7-x16-----7---------4-x16-----2-x16-----7-----
A-4---------2---------7---------5---------4---------2---------5-----
E-2---------0---------5-------------------2---------0---------------
PM...................................................
  Here in   I write   Summer    Best I    Choruses  Lot of    Know

Guitar 2 (clean)                  (distortion)
e-----------------------------------------------------------------
B-----------------------------------------------------------------
G-6---6---6---6---4---4---4---4---7---7---6---6---7---7---6---6---
D---7---7---7---7---7---7---7---7---7---7---7---7---7---7---7---7-
A-----------------------------------------------------------------
E-----------------------------------------------------------------
  Choruses        Lot of          Know

Guitar 1 (cont...)
e-------------------------------------------------------------------
B-------------------------------------------------------------------
G-------------------------------7-x16-------------------------7-x32-
D-4-x16-----2-x16-----7-x16-----7---------4-x16-----2-x16-----7-----
A-4---------2---------7---------5---------4---------2---------5-----
E-2---------0---------5-------------------2---------0---------------
PM...................................................
  All the   Talking   80¹s      Lines     Love      Brings    Face

Guitar 2 (clean)                  (distortion)
e-----------------------------------------------------------------
B-----------------------------------------------------------------
G-6---6---6---6---9---9---6---6---7---7---6---6---7---7---6---6---
D---7---7---7---7---7---7---7---7---7---7---7---7---7---7---7---7-
A-----------------------------------------------------------------
E-----------------------------------------------------------------
  Love            Brings          Face  

Pre-Chorus 1
Guitar 1 (distortion)
e-----------------
B-----------------
G-4-x16-----7-x16-
D-4---------7-----
A-2---------5-----
E-----------------
  I guess   Down

Guitar 2 (distortion)
e--------------------------
B--------------------------
G-4-x7-----7-x17-----11-x8-
D-x--------x---------x-----
A-2--------5---------9-----
E--------------------------
  I        Guess     It
Chorus 1
Guitar 1 (distortion)
e-------------------------------------------------------------------
B-------------------------------------------------------------------
G-------------------------------7-x8--------------------------7-x16-
D-4-x8------2-x8------7-x8------7---------4-x8------2-x8------7-----
A-4---------2---------7---------5---------4---------2---------5-----
E-2---------0---------5-------------------2---------0---------------
  Being     Up        Half      Growing   These     Best      Lives

Guitar 2 (distortion)
e-------------------------------------------------------------
B-------------------------------------------------------------
G-------------------------------7-x8--------------------------
D-4-x8------2-x8------7-x8------7---------4-x8------2-x8------
A-4---------2---------7---------5---------4---------2---------
E-2---------0---------5-------------------2---------0---------
  Being     Up        Half      Growing   These     Best      

e-----------------
B-----------------
G-6---6---7---6---
D---7---7---7---7-
A-----------------
E-----------------
  Lives

Guitar 1 (cont...)
e------------------------------------------------------------
B------------------------------------------------------------
G-------------------------------7-x8-------------------------
D-4-x8------2-x8------7-x8------7---------4-x8-------2-x8----
A-4---------2---------7---------5---------4----------2-------
E-2---------0---------5-------------------2----------0-------
  Only      Matters   Follow    Heart     Eventually Finally 

Guitar 2 (cont...)
e-------------------------------------------------------
B-------------------------------------------------------
G-------------------------------7-6-4-7-11-x7------9-x9-
D-4-x8------2-x8------7-x8------x-x-x-x-x----------x----
A-4---------2---------7---------5-4-2-5-9----------7----
E-2---------0---------5---------------------------------
  Only      Matters   Follow    Heart   Eventually Finally  


Guitar 1 (cont...) 
e---------------------
B---------------------
G-4-x7-6-x9-4-x9-6-x7-
D-7----7----7----7----
A-7----7----7----7----
E---------------------
PM................
  Right

Verse 2
Guitar 1 (distortion)
e-------------------------------------------------------------------
B-------------------------------------------------------------------
G-------------------------------7-x16-------------------------7-x32-
D-4-x16-----2-x16-----7-x16-----7---------4-x16-----2-x16-----7-----
A-4---------2---------7---------5---------4---------2---------5-----
E-2---------0---------5-------------------2---------0---------------
PM...................................................
  Breaking  Swimming  On our    Out at    Time      Singing   Sleep

Guitar 2 (clean)                  (distortion)
e-----------------------------------------------------------------
B-----------------------------------------------------------------
G-6---6---6---6---9---9---6---6---7---7---6---6---7---7---6---6---
D---7---7---7---7---7---7---7---7---7---7---7---7---7---7---7---7-
A-----------------------------------------------------------------
E-----------------------------------------------------------------
  Time            Singing         Sleep

Guitar 1 (cont...)
e------------------------------------------------------------------
B------------------------------------------------------------------
G-------------------------------7-x16------------------------7-x32-
D-4-x16-----2-x16-----7-x16-----7--------4-x16-----2-x16-----7-----
A-4---------2---------7---------5--------4---------2---------5-----
E-2---------0---------5------------------2---------0---------------
PM...................................................
  Lighting  Parking   Blackest  Cokes    20:15     Riverside Goodbye

Guitar 2 (cont...)
e---------------------------------
B-----------------9---9---9---9---
G-6---6---7---9-----9---9---9---9-
D---7---7---7---7-----------------
A---------------------------------
E---------------------------------
  20:15           Riverside

e-9----9----9----9----9----9----9----9----
B---10---10---10---10---10---10---10---10-
G-----------------------------------------
D-----------------------------------------
A-----------------------------------------
E-----------------------------------------
  Goodbye

Pre-Chorus 2
Guitar 1 (distortion)
e-----------------
B-----------------
G-4-x16-----7-x16-
D-4---------7-----
A-2---------5-----
E-----------------
  Get on    Bus

Guitar 2 (distortion)
e--------------------------
B--------------------------
G-4-x7-----7-x17-----11-x8-
D-x--------x---------x-----
A-2--------5---------9-----
E--------------------------
  Get      On        Time

Chorus 2
Guitar 1 (distortion)
e-------------------------------------------------------------------
B-------------------------------------------------------------------
G-------------------------------7-x8--------------------------7-x16-
D-4-x8------2-x8------7-x8------7---------4-x8------2-x8------7-----
A-4---------2---------7---------5---------4---------2---------5-----
E-2---------0---------5-------------------2---------0---------------
  Being     Up        Half      Growing   These     Best      Lives

Guitar 2 (distortion)
e-------------------------------------------------------------
B-------------------------------------------------------------
G-------------------------------7-x8--------------------------
D-4-x8------2-x8------7-x8------7---------4-x8------2-x8------
A-4---------2---------7---------5---------4---------2---------
E-2---------0---------5-------------------2---------0---------
  Being     Up        Half      Growing   These     Best      

e-9----9----10----9----
B---10---10----10---10-
G----------------------
D----------------------
A----------------------
E----------------------
  Lives

Guitar 1 (cont...)
e------------------------------------------------------------
B------------------------------------------------------------
G-------------------------------7-x8-------------------------
D-4-x8------2-x8------7-x8------7---------4-x8-------2-x8----
A-4---------2---------7---------5---------4----------2-------
E-2---------0---------5-------------------2----------0-------
  Only      Matters   Follow    Heart     Eventually Finally 

Guitar 2 (cont...)
e-------------------------------------------------------
B-------------------------------------------------------
G-------------------------------7-6-4-7-11-x7------9-x9-
D-4-x8------2-x8------7-x8------x-x-x-x-x----------x----
A-4---------2---------7---------5-4-2-5-9----------7----
E-2---------0---------5---------------------------------
  Only      Matters   Follow    Heart   Eventually Finally 

Guitar 1 (cont...) 
e---------------------
B---------------------
G-4-x7-6-x9-4-x9-6-x7-
D-7----7----7----7----
A-7----7----7----7----
E---------------------
PM................
  Right

Bridge
Guitar 1 (clean)
e------------------------------------------------------------------
B------------------------------------------------------------------
G-7-x32-6-x16-9-x7-6-x9-7-x32 (gradually pm cuts out and dist. in)-
D-7-----7-----9----7----7------------------------------------------
A-5-----7-----7----7----5------------------------------------------
E------------------------------------------------------------------
PM.......................
  Right

Guitar 2 gives feedback at the end

Chorus 3
Guitar 1 (distortion)
e-------------------------------------------------------------------
B-------------------------------------------------------------------
G-------------------------------7-x8--------------------------7-x16-
D-4-x8------2-x8------7-x8------7---------4-x8------2-x8------7-----
A-4---------2---------7---------5---------4---------2---------5-----
E-2---------0---------5-------------------2---------0---------------
  Being     Up        Half      Growing   These     Best      Lives

Guitar 2 (distortion)
e-------------------------------------------------------------
B-------------------------------------------------------------
G-------------------------------7-x8--------------------------
D-4-x8------2-x8------7-x8------7---------4-x8------2-x8------
A-4---------2---------7---------5---------4---------2---------
E-2---------0---------5-------------------2---------0---------
  Being     Up        Half      Growing   These     Best      

e-9----9----10----9----
B---10---10----10---10-
G----------------------
D----------------------
A----------------------
E----------------------
  Lives

Guitar 1 (cont...)
e-------------------------------------------------------------
B-------------------------------------------------------------
G--------------------------------7-x8-------------------------
D-x4---4-----2-x8------7-x8------7---------4-x8-------2-x8----
A-x4---4-----2---------7---------5---------4----------2-------
E-x2---2-----0---------5-------------------2----------0-------
  Only       Matters   Follow    Heart     Eventually Finally

Guitar 1 (cont...)
e-------
B-------
G-7-x16-
D-7-----
A-5-----
E-------
  Right

Guitar 2 (cont...)
e-------------------------------------------------------------------
B-------------------------------------------------------------------
G--------------------------------7-6-4-7-11-x7-9-x9-7-x8------------
D-x4---4-----2-x8------7-x8------x-x-x-x-x-----x----x---------------
A-x4---4-----2---------7---------5-4-2-5-9-----7----5---------------
E-x2---2-----0---------5---------------------------------(pickslide)
  Only       Matters   Follow    Heart   Eventually Right


Chorus 4

Guitar 1 (distortion)
e-------------------------------------------------------------------
B-------------------------------------------------------------------
G-------------------------------7-x8--------------------------7-x16-
D-4-x8------2-x8------7-x8------7---------4-x8------2-x8------7-----
A-4---------2---------7---------5---------4---------2---------5-----
E-2---------0---------5-------------------2---------0---------------
  Being     Up        Half      Growing   These     Best      Lives

Guitar 2 (distortion)
e-----------------------------------------------------------
B-----------------------------------------------------------
G-14-x7-13-x9-14-x4-13-x3-9-x9-14-x7-16-x9-14-x8------------
D-x-----x-----x-----x-----x----x-----x-----x----------------
A-12----11----12----11----7----12----14----12---------------
E------------------------------------------------(pickslide)
  (no space for lyric guides)

Guitar 1 (cont...)
e------------------------------------------------------------
B------------------------------------------------------------
G-------------------------------7-x8-------------------------
D-4-x8------2-x8------7-x8------7---------4-x8-------2-x8----
A-4---------2---------7---------5---------4----------2-------
E-2---------0---------5-------------------2----------0-------
  Only      Matters   Follow    Heart     Eventually Finally

Guitar 1 (cont...)
e-------
B-------
G-7~----
D-7~----
A-5~----
E-------
  Right

Guitar 2 (cont...)
e---------------------------------------------
B---------------------------------------------
G-14-x7-13-x9-14-x4-13-x3-9-x9-14-x7-16-x9-7~-
D-x-----x-----x-----x-----x----x-----x-----7~-
A-12----11----12----11----7----12----14----5~-
E---------------------------------------------
                                           Right
            
Submit corrections

↑ Back to top | Tablatures and chords for acoustic guitar and electric guitar, ukulele, drums are parodies/interpretations of the original songs. You may use it for private study, scholarship, research or language learning purposes only